Guitar Tabs, Chords and Lyrics
Server problems seems to be fixed. Chordie has been experiencing problems with songs disappearing. These issues now seems to be fixed, but still verifying the fix. If you find anything strange, please email admin@chordie.com.


On the Other Side  Kansas

INTRO
******
F#m G#m A Bm C#m D#m E A X2
[C#m] [F#m] [Bm] [A] [D] [C#m] [F#m]  
GUITAR 1
 
 e|--------h-----------------|--------------|------------------------|---------------|
 B|-s-----9-10-9-------------|--------------|-s-----b-r-------h-p----|---------------|
 G|-\11----------11-9-9------|--s---8-9-9-8-|-\9---11---9-8--6-8-6---|---------------|
 D|---------------------9-11-|-8\11---------|----------------------9-|-9-11-12-12-11-|
 A|--------------------------|--------------|------------------------|---------------|
 E|--------------------------|--------------|------------------------|---------------|
 e|--------h-----------------|--------------|------------------------|---------------|
 B|-s-----9-10-9-------------|--------------|-s-----b-r-------h-p----|---------------|
 G|-\11----------11-9-9------|--s---8-9-9-8-|-\9---11---9-8--6-8-6---|---------------|
 D|---------------------9-11-|-8\11---------|----------------------9-|-9-11-12-12-11-|
 A|--------------------------|--------------|------------------------|---------------|
 E|--------------------------|--------------|------------------------|---------------|

Pleck Pinch Plaeck Pinch
 
 e|--------------------|----------------|--|---------------------|
 B|----------------------------------------|---------------------|
 G|--s--------p---------p------------------|-6---b--------rbp----|
 D|-9\11-----9-7-7-----7-6-7-6---6------s--|---7-9---9-7--9--7---|
 A|----------------------------9---9-7-7\9-|-------------------9-|
 E|----------------------------------------|---------------------|
 -----------------------

VERSE 1
********
[F#m]The empty page [Bm]before me now, the [A]pen is in my [D]hand
[F#m]The words don't come so [Bm]easy but I'm [A]trying [F#m]
[F#m]I'm searching for a [Bm]melody or [A]some forgotten [D]line
[C#m]They can slip [Bm]away from us so [F#m]quickly [A]
[D]Don't be [A]unkind [D] I'm not com[A]plaining
[D]I only feel it needs explaining
 
 -----------------------

CHORUS
*******
And [F#m]though I've said it [E]all before I'll [D#m]say it once [D]again
[Bm]Everyone needs [C#m]something to be[F#m]lieve in
So [F#m]turn around, [Bm]turn around it's [E]on the other [F#m]side
[F#m]Feel the sound, [Bm]feel the sound, it's [E]coming from deep [F#m]inside
It will [D]fill you with [A]emotion, if you [D]let it be your [A]guide [C#m]so
[F#m]Turn around; [Bm]turn around, it's [E]on the other [F#m]side
 
 -----------------------

01:53
SOLO - Bm A D C#m Bm F#m
*****
| Pleck Pinching |
 
 e|--------------------|-----------|--------------------b-r-----b--b-|
 B|-b------b-b-b-------|-----------|-----------9-10-12-12--10--12-12-|
 G|-9--9-6-9-9-9--9----|---p-------|--s---9-11-----------------------|
 D|-----------------11-|-10-9----9-|-9\11----------------------------|
 A|--------------------|------12---|---------------------------------|
 E|--------------------|-----------|---------------------------------|
 -----------------------

VERSE 2
********
[F#m]I'm waiting for the [Bm]day to end a[A]nother to [D]begin
[C#m]Somehow I've for[Bm]gotten what it [F#m]stood for
[F#m]I look into your [Bm]face and see the [A]searching in your [D]eyes
[C#m]I will he your [Bm]servant till the [F#m]end
[D] The music [A]plays, [D] and for a moment I feel
[D]That all there days an so fulfilling
 
 -----------------------

CHORUS
*******
And [F#m]though I've said it [E]all before I'll [D#m]say it once [D]again
[Bm]Everyone needs [C#m]something to be[F#m]lieve in
So [F#m]turn around, [Bm]turn around it's [E]on the other [F#m]side
[F#m]Feel the sound, [Bm]feel the sound, it's [E]coming from deep [F#m]inside
It will [D]fill you with [A]emotion, if you [D]let it be your [A]guide [C#m]so
[F#m]Turn around; [Bm]turn around, it's [E]on the other [D]side
 
 -----------------------

03:21
BREAK
******
 
 e|-------------4 TIMES-----------------|------------------3 TIMES-------------------|
 B|-------------------------------------|--------------------------------------------|
 G|-------------------------s-----------|----------s--------s------------------------|
 D|---------4-2----4-2-----2\4--4-2-----|---------3\5-3----5\7-5---------7-5---------|
 A|---0-2-4-----4------4-0----------4-2-|-0-3-5-3-------5--------7-5-7-------7-5-3-5-|
 E|-2-----------------------------------|--------------------------------------------|

03:50
 
 e|------------------|-----------|-------------------|\
 B|------------------|-----------|-------------------| \
 G|------------------|-----------|-------------------| \
 D|--------------5---|-------5---|-----------5---9-7-| /X2
 A|-----------s----7-|--s--5-----|--------s----7-9-7-| /
 E|-0--0-3-0-5\7-----|-5\7-----0-|-0-3-0-5\7-----7-5-|/
 -----------------------
 -----------------------

04:02 A hard solo to do and tab out i think there is 2 guitars playing solos at the same time.
SOLO - F#m G#m A Bm C#m
*****
 
 e|---------------------|-------------------------|--------------------|
 B|---------------10----|-----------12-10---------|-----------12-10----|
 G|-brb--s---9-11----11-|--s---9-11--------11~~~~-|---------9-------11-|
 D|-9---9\11------------|-9\11--------------------|-11-9-11------------|
 A|---------------------|-------------------------|--------------------|
 E|---------------------|-------------------------|--------------------|

p
 
 e|--b-10-10-10-|--b-10-10-10-|-12-9----9--b----|-9-10-11-12-11-10-9-|
 B|-12----------|-12----------|------12---10-11-|--------------------|
 G|-------------|-------------|-----------------|--------------------|
 D|-------------|-------------|-----------------|--------------------|
 A|-------------|-------------|-----------------|--------------------|
 E|-------------|-------------|-----------------|--------------------|

04:14
b r
 
 e|-15----12-15-12---------------h--------|--------------------------------------------s----Whammy Dive Down-|
 B|------------------12-12--12-12-14-~~~~-|-14-10----10-----10-12-~~~----10-12----12-12\14-/\----------------|
 G|---------------------------------------|-------11-----13-----------13-------13----------------------------|
 D|---------------------------------------|------------------------------------------------------------------|
 A|---------------------------------------|------------------------------------------------------------------|
 E|---------------------------------------|------------------------------------------------------------------|
 -----------------------

VERSE 3
********
[F#m]Desperation [Bm]shows its ugly [A]face in many [D]ways
[F#m]No one can [Bm]escape the [A]times we [F#m]live in
[F#m]The answers are so [Bm]simple and we [A]all know where to [D]look
But it's [C#m]easier to [Bm]just avoid the [F#m]question [A]
[D] And if I [E]seem [D]too incon[E]clusive
[D]It's just [A]because [D]it's so elusive
 
 -----------------------

CHORUS
*******
And [F#m]though I've said it [E]all before I'll [D#m]say it once [D]again
[Bm]Everyone needs [C#m]something to be[F#m]lieve in
So [F#m]turn around, [Bm]turn around it's [E]on the other [F#m]side
[F#m]Feel the sound, [Bm]feel the sound, it's [E]coming from deep [F#m]inside
It will [D]fill you with [A]emotion, if you [D]let it be your [A]guide [C#m]so
[F#m]Turn around; [Bm]turn around, it's [E]on the other [D]side
SMALL SOLO - F#m G#m A Bm C#m D#m E A X4
**********
 
 e|--------h---------------|--------------|------------------------|---------------|
 B|-s-----9-10-9-----------|--------------|-s-----b-r-------h-p----|---------------|
 G|-\11----------11-9------|--s---8-9-9-8-|-\9---11---9-8--6-8-6---|---------------|
 D|-------------------9-11-|-8\11---------|----------------------9-|-9-11-12-12-11-|
 A|------------------------|--------------|------------------------|---------------|
 E|------------------------|--------------|------------------------|---------------|


Important: The song above is NOT stored on the Chordie server. The original song is hosted at www.azchords.com. Chordie works as a search engine and provides on-the-fly formatting. Chordie does not index songs against artists'/composers' will. To remove this song please click here.

Text color:
Chord color:
Chord grids: 
Font size:    
Page size: 

A Bm C#m D D#m E F#m
Rate #1 of 1 versions

Login - add to songbook

SHARE PAGE  



You need to log in to post comments