Guitar Tabs, Chords and Lyrics
Major upgrade!! After one year development the new version of Chordie is now online! Please give feedback.


Island Boy  Kenny Chesney

[Intro] 
 
 e|----------12---10---8---10---7-------------------------------------8--8??7-------|
 B|-------------------------------8--------------------------8--10-----------10----|
 G|----------------------------------7------------7---9-s10------------------------|
 D|--------------------------------------------------------------------------------|
 A|--------------------------------------------------------------------------------|
 E|--------------------------------------------------------------------------------|
 e|------------------------------------------------------------------------------|
 B|---8--8--8---8-------------8----------------------------------8---10-----8-10-|
 G|----------------10--9--10---------7----7-S9--7----------7h9h10---------9------|
 D|------------------------------10----------------------------------------------|
 A|------------------------------------------------------------------------------|
 E|------------------------------------------------------------------------------|
 e|---------------------------------------10p8------7s8--------8s10-8----8-7--8-|
 B|----8-10----8-10----8-10--8---8------------10-8-----10-8-10--------10----10--|
 G|--9-------9-------9---------9------------------------------------------------|
 D|-----------------------------------------------------------------------------|
 A|-----------------------------------------------------------------------------|
 E|-----------------------------------------------------------------------------|
 e|---12---10---8----7----3------------|
 B|------------------------------------|
 G|---12---10---9----7----4------------|
 D|------------------------------------|
 A|------------------------------------|
 E|------------------------------------|

[Verse] 
[C]He left Maine 'cause he needed a change
[Am]And he was desperate to rearrange
[F]priorities, And he thought the sea
[G]Would be the best place to be
[C]So he saved his money, sold his car
[Am]And with his eye set on a Southern star
[F]Got the courage to follow his heart
[G]Set out for a brand new start
[Cborus] 
[F]He's an island boy
Now he's [C]an island boy
[G]Living his life where [F]stress is the [C]enemy
[F]Now he's an island boy
A stone's throw [C]from St. Croix
[G]He's finally found his [F]piece of [C]serenity
[Verse] 
[C]Now he tends bar at the Old Mango
[Am]And he sees tourists come and go
[F]With their pressed pants and camera case
[G]Too much sun burned on their face
[C]Now he watches the snow on CNN
[Am]With all of his dope-smokin' friends
[F]Just look at the hell they must be in
[G]Swears he won't go back again
[Cborus] 
[F]He's an island boy
Now he's [C]an island boy
[G]Living his life where [F]stress is the [C]enemy
[F]Now he's an island boy
A stone's throw [C]from St. Croix
[G]He's finally found his [F]piece of [C]serenity
[Bridge] 
[D]You know the love of his life has always been Emily
[F]She l[C]oves the man she [G]sees
[F]In her island boy
Now he's an [C]island boy
[G]Living his life where [F]stress is the [C]enemy
Now he's an i[F]sland boy
A stone's throw [C]from St. [F]Croix
[G]He's finally found his [F]piece of [C]serenity
Island boy
A stone's throw from St. Croix
Island boy
Island boy
Island boy

Important: The song above is NOT stored on the Chordie server. The original song is hosted at www.azchords.com. Chordie works as a search engine and provides on-the-fly formatting. Chordie does not index songs against artists'/composers' will. To remove this song please click here.

Text color:
Chord color:
Chord grids: 
Font size:    
Page size: 

Am C D F G
Rate #1 of 6 versions

Jango Player

Login - add to songbook

SHARE PAGE  




You need to log in to post comments