Guitar Tabs, Chords and Lyrics
Major upgrade!! After one year development the new version of Chordie is now online! Please give feedback.


Life on a Rock  Kenny Chesney

 
 E--------------------------------------------------------|
 B--------3----------3--3----------3---------3--3---------|
 G--------2----------2--2h4--------2---------2--2h4-0-----|
 D--0-0-------2-4-------------0-0------2-4-------------4--|
 A--------------------------------------------------------|
 E--------------------------------------------------------|
 E--------------------------------------------------------|
 B--------3----------3--3----------3---------3--3---------|
 G--------2----------2--2h4--------2---------2--2h4-0-----|
 D--0-0-------2-4-------------0-0------2-4-------------4--|
 A--------------------------------------------------------|
 E--------------------------------------------------------|
 E--------------------------------------------------------|
 B--------3----------3--3----------3---------3--3---------|
 G--------2----------2--2h4--------2---------2--2h4-0-----|
 D--0-0-------2-4-------------0-0------2-4-------------4--|
 A--------------------------------------------------------|
 E--------------------------------------------------------|

SOME SAY WE'RE THE LAND OF MISFIT TOYS
 
 E--------------------------------------------------------|
 B--------3----------3--3----------3---------3--3---------|
 G--------2----------2--2h4--------2---------2--2h4-0-----|
 D--0-0-------2-4-------------0-0------2-4-------------4--|
 A--------------------------------------------------------|
 E--------------------------------------------------------|

AN INSANE MIX OF GIRLS AND BOYS
 
 E--------------------------------------------------------|
 B--------3----------3--3-------2-2-2--x-x--3-2-----------|
 G--------2----------2--2h4-----2-2-2--x-x--2-2-----------|
 D--0-0-------2-4---------------2-2-2--x-x--4-2-----------|
 A--------------------------------------------------------|
 E--------------------------------------------------------|

NOTHING REALLY CHANGES LIKE A STRETCH OF SAND TIME FORGOT
[G]THAT'S JUST [D]LIVING, [G]THAT'S JUST [D]LIVING, [G]THATS JUST [D]LIVING
[A]LIFE ON [G]A [D]ROCK
 
 E--------------------------------------------------------|
 B--------3----------3--3----------3---------3--3---------|
 G--------2----------2--2h4--------2---------2--2h4-0-----|
 D--0-0-------2-4-------------0-0------2-4-------------4--|
 A--------------------------------------------------------|
 E--------------------------------------------------------|
 E--------------------------------------------------------|
 B--------3----------3--3----------3---------3--3---------|
 G--------2----------2--2h4--------2---------2--2h4-0-----|
 D--0-0-------2-4-------------0-0------2-4-------------4--|
 A--------------------------------------------------------|
 E--------------------------------------------------------|

WELL YOU DON'T LOSE A LOVER YEAH, YEAH, YEAH
YOU JUST LOSE YOUR TURN
 
 E--------------------------------------------------------|
 B--------3----------3--3----------3---------3--3---------|
 G--------2----------2--2h4--------2---------2--2h4-0-----|
 D--0-0-------2-4-------------0-0------2-4-------------4--|
 A--------------------------------------------------------|
 E--------------------------------------------------------|

DRIVING ON THE LEFT SIDE YEAH, YEAH, YEAH
GOTTA BE LEARNED
 
 E--------------------------------------------------------|
 B--------3----------3--3-------2-2-2--x-x--3-2-----------|
 G--------2----------2--2h4-----2-2-2--x-x--2-2-----------|
 D--0-0-------2-4---------------2-2-2--x-x--4-2-----------|
 A--------------------------------------------------------|
 E--------------------------------------------------------|

HAPPY HOURS FROM THREE TO SIX BUT IT NEVER REALLY STOPS
THAT[G]'S JUST LIVI[D]NG, THAT[G]'S JUST LIVI[D]NG, THAT[G]S JUST LIVI[D]NG
[A]LIFE ON [G]A [D]ROCK
[G]WE GOT RASTA RELIGIONS, [D]PARROTS AND PIGEONS, [A]MANGO AND SALT ON A [D]STICK
[G]LIFE IS A LIME AND FROM [D]TIME TO TIME I [E]GOTTA GET MY [G]FIX
GUITAR SOLO
[G]WE ROLL WITH THE FLOW AS [D]FRIENDS COME AND GO
[G]USUALLY BY THE EDGE OF THE [D]DOCK
[G]THAT'S JUST [D]LIVING, [G]THAT'S JUST [D]LIVING, [G]THATS JUST [D]LIVING
[A]LIFE ON [G]A [D]ROCK
OH [G]I LOVE [D]LIVING, [G]I LOVE [D]LIVING, [G]I LOVE [D]LIVING
[A]LIFE ON [G]A [D]ROCK
 
 E--------------------------------------------------------|
 B--------3----------3--3----------3---------3--3---------|
 G--------2----------2--2h4--------2---------2--2h4-0-----|
 D--0-0-------2-4-------------0-0------2-4-------------4--|
 A--------------------------------------------------------|
 E--------------------------------------------------------|
 E--------------------------------------------------------|
 B--------3----------3--3----------3---------3--3---------|
 G--------2----------2--2h4--------2---------2--2h4-0-----|
 D--0-0-------2-4-------------0-0------2-4-------------4--|
 A--------------------------------------------------------|
 E--------------------------------------------------------|

LIFE ON A ROCK
 
 E--------------------------------------------------------|
 B--------3----------3--3----------3---------3--3---------|
 G--------2----------2--2h4--------2---------2--2h4-0-----|
 D--0-0-------2-4-------------0-0------2-4-------------4--|
 A--------------------------------------------------------|
 E--------------------------------------------------------|
 E--------------------------------------------------------|
 B--------3----------3--3----------3---------3--3---------|
 G--------2----------2--2h4--------2---------2--2h4-0-----|
 D--0-0-------2-4-------------0-0------2-4-------------4--|
 A--------------------------------------------------------|
 E--------------------------------------------------------|

YEAH, YEAH, YEAH
 
 E--------------------------------------------------------|
 B--------3----------3--3----------3---------3--3---------|
 G--------2----------2--2h4--------2---------2--2h4-0-----|
 D--0-0-------2-4-------------0-0------2-4-------------4--|
 A--------------------------------------------------------|
 E--------------------------------------------------------|

YEAH, YEAH, YEAH

Important: The song above is NOT stored on the Chordie server. The original song is hosted at www.azchords.com. Chordie works as a search engine and provides on-the-fly formatting. Chordie does not index songs against artists'/composers' will. To remove this song please click here.

Text color:
Chord color:
Chord grids: 
Font size:    
Page size: 

A D E G
Rate #1 of 1 versions

Login - add to songbook

SHARE PAGE  



You need to log in to post comments