Guitar Tabs, Chords and Lyrics
Major upgrade!! After one year development the new version of Chordie is now online! Please give feedback.


Reality   Kenny Chesney

 
 E[-10/12vâ??12\10h12p10h12p10h12---------------------------------------------------]
 B[----------------------------13h15p13-13----------------------------------------]
 G[---------------------------------------14p12-14\5h7b-7b-7b(9)â??7b-7b(9)-7-9-7\5-]
 D[-------------------------------------------------------------------------------]
 A[-------------------------------------------------------------------------------]
 E[-------------------------------------------------------------------------------]
 E[-------------------------------------------------------12----------------------]
 B[------------------------8â??8h10bp8-8-10-13-15-13h15-----------------------------]
 G[-------------5--5-7/9------------9---------------------------------------------]
 D[---------5---------------------------------------------------------------------]
 A[--3-5/7------------------------------------------------------------------------]
 E[-------------------------------------------------------------------------------]
 E[--10h12â??10h12â??10h12p10h12/15--12-15-12-15/20-20b-20b(22)V----------------------]
 B[-------------------------------------------------------------------------------]
 G[-------------------------------------------------------------------------------]
 D[-------------------------------------------------------------------------------]
 A[-------------------------------------------------------------------------------]
 E[-------------------------------------------------------------------------------]


Important: The song above is NOT stored on the Chordie server. The original song is hosted at www.azchords.com. Chordie works as a search engine and provides on-the-fly formatting. Chordie does not index songs against artists'/composers' will. To remove this song please click here.

This song is displayed as text-only. Transposing and tuning is only available for chordpro-songs.
Rate #1 of 9 versions

Jango Player

Login - add to songbook

SHARE PAGE  



You need to log in to post comments