Guitar Tabs, Chords and Lyrics
Major upgrade!! After one year development the new version of Chordie is now online! Please give feedback.


No One  Lagwagon

INTRO:
[D] [Bb] [C] [A] [D] 
 
 --------------------------------------------------------------------
 --------------------------------------------------------------------
 ----------------3---------------5---------------2---------------7---
 7---2/3-x-2/3-x-3---2/3-x-2/3-x-5---2/3-x-2/3-x-2---2/3-x-2/3-x-7---
 5---------------1---------------3---------------0---------------5---
 --------------------------------------------------------------------

(two extra beats)
D Bb C A Do the "wroom"
 
 ----------------------------------------------------------------
 ----------------------------------------------------------------
 ------------3---------------5---------------2---x---------------
 2/3-x-2/3-x-3---2/3-x-2/3-x-5---2/3-x-2/3-x-2---x---------------
 ------------1---------------3---------------0---x---------------
 ----------------------------------------------------------------

VERSE 1:
[D] [Bb]  
 
 ----------------------------------------------------------------
 ----------------------------------------------------------------
 7---------------------------------------------------------------
 7-------------------------------8-------------------------------
 5-------------------------------8-------------------------------
 --------------------------------6-------------------------------

[D] [Bb] [F] [C]  
 
 ----------------6-------5--------------------------------------- (guitar 2)
 ----------------------------------------------------------------
 7---------------7-------7---7-----------10--10--5---5---5---5---
 7---------------7-------7---7---8---8---10--10--5---5---5---5---
 5---------------5-------5---5---8---8---8---8---3---3---3---3---
 --------------------------------6---6---------------------------

D Bb (..the wroom)
 
 ----------------------------------------------------------------
 ----------------------------------------------------------------
 7---------------------------------------------------------------
 7-------------------------------8-------------------------------
 5-------------------------------8-------------------------------
 --------------------------------6-------------------------------

BRIDGE TO CHORUS:
[C] [A] [Bb] [G] 
 
 ----------------------------------------------------------------
 ----------------------------------------------------------------
 5-x-x-x-x-x-x-------------------3-x-x-x-x-x-x-------------------
 5-x-x-x-x-x-x-7-x-x-x-x-x-x-x-x-3-x-x-x-x-x-x-5-x-x-x-x-x-x-x5--
 3-3-3-3-3-3-3-7-x-x-x-x-x-x-x-x-1-1-1-1-1-1-1-5-x-x-x-x-x-x-x5--
 --------------5-5-5-5-5-5-5-5-5---------------3-3-3-3-3-3-3-33--

CHORUS 1:
[F] [D] [F] [A] [Bb] 
 
 ----------------------------------------------------------------
 ----------------------------------------------------------------
 --------------7-----7---7---7-7-10--10--101010------------------
 3---3---3-3-3-7-----7---7---7-7-10--10--1010107-----7---7---8-x-
 3---3---3-3-3-5-----5---5---5-5-8---8---8-8-8-7-----7---7---8-x-
 1---1---1-1-1---------------------------------5-----5---5---6-x-

[Bb] [F] [C] [A] [Bb] 
 
 ----------------------------------------------------------------
 ----------------------------------------------------------------
 --------------------------------5---5---5-5-5-------------------
 --8-----8-8-8-3---3---3-3-3-3---5---5---5-5-5-7-----7---7-7-7-8-
 --8-----8-8-8-3---3---3-3-3-3---3---3---3-3-3-7-----7---7-7-7-8-
 --6-----6-6-6-1---1---1-1-1-1-----------------5-----5---5-5-5-6-

[Bb] [D] [F] [A] [Bb] 
 
 ----------------------------------------------------------------
 ----------------------------------------------------------------
 --------------7-----7---7-7-7-7-10--10--10101014----14--1414----
 --8-----8-8-8-7-----7---7-7-7-7-10--10--10101014----14--1414--8-
 --8-----8-8-8-5-----5---5-5-5-3-8---8---8-8-8-12----12--1212--8-
 --6-----6-6-6-------------------------------------------------6-

[Bb] [F]  
 
 ----------------------------------------------------------------
 ----------------------------------------------------------------
 --------------------------------5---5---5-5-5-------------------
 --8-----8-8-8-3-----3---3-3-3-3-5---5---5-5-5-----0---2---3-----
 --8-----8-8-8-3-----3---3-3-3-3-3---3---3-3-3-4-----------------
 --6-----6-6-6-1-----1---1-1-1-1---------------------------------

VERSE 2:
[D] [Bb]  
 
 ----------------------------------------------------------------
 ----------------------------------------------------------------
 7-----7-7-----7-7-----7-7---7-----------------------------------
 7-----7-7-----7-7-----7-7---7---8-----8-8-----8-8-----8-8---8---
 5-----5-5-----5-5-----5-5---5---8-----8-8-----8-8-----8-8---8---
 --------------------------------6-----6-6-----6-6-----6-6---6---

[D] [Bb] [C]  
 
 ----------------6-------5--------------------------------------- (guitar 2)
 ----------------------------------------------------------------
 7-----7-7-----7-7-----7-7---7-------------------------------5-5-
 7-----7-7-----7-7-----7-7---7---8-----8-8-----8-8-8-x-------5-5-
 5-----5-5-----5-5-----5-5---5---8-----8-8-----8-8-8-x-------3-3-
 --------------------------------6-----6-6-----6-6-6-x-----------

[D] [Bb] [D] [G] 
 
 ----------------------------------------------------------------
 ----------------------------------------------------------------
 7-----7-x---7-------------------7-----7-x---7-------------------
 7-----7-x---7---8-----8-x---8---7-----7-x---7---5-5-5-5-x---5---
 5-----5-x---5---6-----8-x---8---5-----5-x---5---5-5-5-5-x---5---
 ----------------6-----6-x---6-------------------3-3-3-3-x---2---

[D] [Bb] [G] [A] 
 
 ----------------------------------------------------------------
 ----------------------------------------------------------------
 7-----7-----7---------------------------------------------------
 7-----7-----7---8-----8-----8---5-----5-----5---7---------------
 5-----5-----5---6-----8-----8---5-----5-----5---7---------------
 ----------------6-----6-----6---3-----3-----3---5---------------

BRIDGE TO CHORUS:
(muted all the time)
[D] [A] [Bb] [G] 
 
 ----------------------------------------------------------------
 ----------------------------------------------------------------
 7-x-x-x-x-x-x-------------------3-x-x-x-x-x---------------------
 7-x-x-x-x-x-x---7-x-x-x-x-x-x-5-3-x-x-x-x-x-2-5-x-x-x-x-x-x-109-
 5-5-5-5-5-5-5-8-7-x-x-x-x-x-x-3-1-1-1-1-1-1-0-5-x-x-x-x-x-x-8-7-
 --------------6-5-5-5-5-5-5-5-----------------3-3-3-3-3-3-3-----

[D] [A] [Bb] [C] 
 
 ----------------------------------------------------------------
 ----------------------------------------------------------------
 7-x-x-x-x-x-x-------------------3-x-x-x-x-x---5-x-x-x-x-x-x-----
 7-x-x-x-x-x-x---7-x-x-x-x-x-x-5-3-x-x-x-x-x-7-5-x-x-x-x-x-x-109-
 5-5-5-5-5-5-5-8-7-x-x-x-x-x-x-3-1-1-1-1-1-1-5-3-3-3-3-3-3-3-8-7-
 --------------6-5-5-5-5-5-5-5-----------------------------------

(open)
[D] [A] [Bb] [G] 
 
 ----------------------------------------------------------------
 ----------------------------------------------------------------
 7---7---7-7-7-----------------3-3---3---3-----------------------
 7---7---7-7-7-7-----7---7---7-5-3---3---3---7-5-----5---5---109-
 5---5---5-5-5-7-----7---7---7-3-1---1---1---7-5-----5---5---8-7-
 --------------5-x---5---5---5---------------5-3-----3---3-------

[D] [A] [Bb] [C] 
 
 ----------------------------------------------------------------
 ----------------------------------------------------------------
 7---7---7-7-7-----------------3-3---3---3-----------------------
 7---7---7-7-7-7-----7---7---7-5-3---3---3---7-5-5-x-----5-------
 5---5---5-5-5-7-----7---7---7-3-1---1---1---7-5-5-x-----5-------
 --------------5-x---5---5---5---------------5-3-3-x-----3-------

CHORUS 2:
[F] [D] [F] [A] 
 
 ----------------------------------------------------------------
 ----------------------------------------------------------------
 ----------------7-----------7---10----------10------------------
 3---x-x-x-x-x-x-7-----------7---10----------10--7-----------7---
 3---x-x-x-x-x-x-5-----------5---8-----------8---7-----------7---
 1---1-1-1-1-1-1---------------------------------5-----------5---

[Bb] [F] [C] [A] 
 
 ----------------------------------------------------------------
 ----------------------------------------------------------------
 --------------------------------5-----------5-------------------
 8-----------8---3-----------3---5-----------5-------------------
 8-----------8---3-----------3---3-----------3---4---5---7---x---
 6-----------6---1-----------1-----------------------------------

Bb D Bb A =20
 
 ----------------------------------------------------------------
 ----------------------------------------------------------------
 --------------7-----7---7-7-7-7---------------------------------
 8---8---8-8-8-7-----7---7-7-7-7-7---7---7-7-7-7-----7---7-7-7---
 8---8---8-8-8-5-----5---5-5-5-3-5---5---5-5-5-7-----7---7-7-7---
 6---6---6-6-6-------------------6---6---6-6-6-9-----9---9-9-9---

[Bb] [F]  
 
 ----------------------------------------------------------------
 ----------------------------------------------------------------
 --------------------------------5---5---5-5-5-------------------
 8-x-8---8-8-8-3-----3---3-3-3-3-5---5---5-5-5-----0---2---3-----
 8-x-8---8-8-8-3-----3---3-3-3-3-3---3---3-3-3-4-----------------
 6-x-6---6-6-6-1-----1---1-1-1-1---------------------------------

OUTRO:
[D] [Bb]  
 
 ----------------------------------------------------------------
 ----------------------------------------------------------------
 7---------------------------------------------------------------
 7-------------------------------x---8---------------------------
 5---------------8-8-8-7---8-7---x---8-----------8-8-8-7---8-7---
 ------------------------------8-x---6-------------------------8-

[D] [Bb]  
 
 ----------------------------------------------------------------
 ----------------------------------------------------------------
 x---7-----------------------------------10--1010----------------
 x---7---------------------------8---8-8-10--1010----------------
 x---5-----------8-8-8-7---8-7---8---8-8-8---8-8-7---7-7-----7---
 ------------------------------8-6---6-6---------8---8-8-8-------

D (slide down)
 
 --------------------------------
 --------------------------------
 7-------------------------------
 7-------------------------------
 5-------------------------------
 --------------------------------


Important: The song above is NOT stored on the Chordie server. The original song is hosted at www.azchords.com. Chordie works as a search engine and provides on-the-fly formatting. Chordie does not index songs against artists'/composers' will. To remove this song please click here.

Text color:
Chord color:
Chord grids: 
Font size:    
Page size: 

A Bb C D F G
Rate #1 of 1 versions

Jango Player

Login - add to songbook

SHARE PAGE  




You need to log in to post comments