Guitar Tabs, Chords and Lyrics
Server problems seems to be fixed. Chordie has been experiencing problems with songs disappearing. These issues now seems to be fixed, but still verifying the fix. If you find anything strange, please email admin@chordie.com.


Ein Sturm  Madsen

|Verse ||Chorus ||Bridge
| Gm | Cm | Dm || Gm | B | #D || F
 
 E|----|--3-|--5-||--3-|-1-|--6-||-8--|
 H|-11-|--4-|--6-||--3-|-3-|--8-||-10-|
 G|-12-|--5-|--7-||--4-|-3-|--8-||-10-|
 D|-12-|--5-|--7-||--5-|-3-|--8-||-10-|
 A|-10-|--3-|--5-||--5-|-1-|--6-||-8--|
 E|----|----|----||--3-|---|----||----|

:| INTRO
2 times!
 
 E|----------------------------13-13-13-13-|-3--3--3-3-3--3-3-3-6-6-6-6-|
 H|-11--11--11-11-11--10-10-10-10-10-10-10-|-4--4--4-4-4--4-4-4-4-4-4-4-|
 G|-12--12--12-12-12--12-12-12-12-12-12-12-|-5--5--5-5-5--5-5-5-5-5-5-5-|
 D|-12--12--12-12-12--12-12-12-12-12-12-12-|-5--5--5-5-5--5-5-5-5-5-5-5-|
 A|-10--10--10-10-10--10-10-10-10-10-10-10-|-3--3--3-3-3--3-3-3-3-3-3-3-|
 E|----------------------------------------|----------------------------|

:| VERSE
[Gm]Frost in unseren Adern, [Cm]Staub in unseren Kehlen
[Cm]Keiner kann uns hören wenn[Gm] wir etwas erzählen
[Gm]Wir haben Angst vor allem, das uns [Cm]unbekannt erscheint
[Cm]Wir leben in Sicherheit und wir [Gm]fühlen uns allein
Ich [Cm]will mit [Dm]dir dort[Gm]hin, wo das [Cm]Schicksal [Dm]uns ums[Gm]chlingt
Cm Dm Gm brake
Dort, wo wir verstehn, dass wir am Leben
:| CHORUS
[Gm]sind / Ein Sturm kommt [B]auf und zieht uns hi[#D]naus
Und ganz [Cm]plötzlich[B] sind wir[Gm] wach
Ein Sturm kommt [B]auf und rei?t uns h[#D]inaus
Cm B -> 2x Intro-Riff
In die Dunkelheit der Nacht
:| VERSE
Unsere[Gm] Welt kennt keinen Zufall, hier läuft[Cm] alles nur nach Plan
[Cm]Unsichbare Ketten legen [Gm]unsere Neugier lahm
Wir bet[Gm]äuben uns mit Lügen v[Cm]erschwenden unsre Zeit
Wir [Cm]leben in Sicherheit und wir [Gm]fühlen uns allein
Ich [Cm]will mit [Dm]dir dort[Gm]hin, wo das [Cm]Schicksal [Dm]uns ums[Gm]chlingt
Cm Dm Gm brake
Dort, wo wir verstehn, dass wir am Leben
:| CHORUS
[Gm]sind / Ein Sturm kommt [B]auf und zieht uns hi[#D]naus
Und ganz [Cm]plötzlich[B] sind wir[Gm] wach
Ein Sturm kommt [B]auf und rei?t uns h[#D]inaus
In die [Cm]Dunkel[B]heit der Nacht
:| BRIDGE
[B]Kannst du [Cm]sehen, was ich sehe?
Kannst du [Dm]fühlen, was ich fühle?
[#D]Das war [F]nicht ge[B]plant!
Kannst du [Cm]sehen, was ich sehe?
Kannst du [Dm]fühlen, was ich fühle?
[#D]Das war [F]nicht gepl[Gm]ant!
Ich [Cm]will mit [Dm]dir dort[Gm]hin, wo das [Cm]Schicksal [Dm]uns ums[Gm]chlingt
Cm Dm Gm brake
Dort, wo wir verstehn, dass wir am Leben
:| CHORUS
[Gm]sind / Ein Sturm kommt [B]auf und zieht uns hi[#D]naus
Und ganz [Cm]plötzlich[B] sind wir[Gm] wach
Ein Sturm kommt [B]auf und rei?t uns h[#D]inaus
In die [Cm]Dunkel[B]heit der Nacht
:| OUTRO
similarly as chorus:
2 times
| Gm | B | #D | F |
end on gm !

Important: The song above is NOT stored on the Chordie server. The original song is hosted at www.azchords.com. Chordie works as a search engine and provides on-the-fly formatting. Chordie does not index songs against artists'/composers' will. To remove this song please click here.

Text color:
Chord color:
Chord grids: 
Font size:    
Page size: 

B Cm Dm F Gm
Rate #1 of 3 versions

Jango Player

Login - add to songbook

SHARE PAGE  



You need to log in to post comments