Guitar Tabs, Chords and Lyrics
Server problems seems to be fixed. Chordie has been experiencing problems with songs disappearing. These issues now seems to be fixed, but still verifying the fix. If you find anything strange, please email admin@chordie.com.


Es wird schon wieder gut  Madsen

Intro: Tabs oder stattdessen C Em
 
 e|-------0-----------------------------------------|
 B|-------------------3-----------1-----------0-----|
 G|----------0-----------0-----------0-----------0--|
 D|----2-----------2-----------2-----------2--------|
 A|-3-----------3-----------3-----------3-----------|
 E|-------------------------------------------------|
 e|-------0-----------------------------------------|
 B|-------------------3-----------1-----------0-----|
 G|----------0-----------0-----------0-----------0--|
 D|----2-----------2-----------2-----------2--------|
 A|-2-----------2-----------2-----------2-----------|
 E|-------------------------------------------------| 

Intro x2
Verse 1
Sie sagten, [C]bleib so
Bitte b[Em]eweg' dich nicht
Ein dumpfer [Am]Knall
Du bist ge[G]fallen
Und ich er[F]innere [G]mich
Sie sagten [C]halt durch
Halte deine [Em]Augen auf
Bitte bleib [Am]wach
Am Ende der [G]Nacht
Hast du's ge[F]schafft
Hast du's ge[G]schafft
Chorus
Ich glaub wieder an [Dm]Wunder
Glaub an jeden [F]Herzschlag
Glaube an die [Am]Kraft, die in mir [G]ruht
Ich glaub wieder an [Dm]Wunder
Denn sie gaben [F]mir den Mut
Sie sagten, [C]alles, [G]alles wird [F]gut
Sie [G]sagten, [C]alles, [G]alles wird [F]gut
[Dm]Es wird schon [G]wieder gut
Intro x2
Verse 2
Sie [C]sangen
Und das ver[Em]gesse ich nicht
Sie sangen "Hey [Am]Jude" für mich
[G]Und meine Angst ver[F]schwand
Sie ver[G]schwand
Heute bin ich so [C]dankbar
Für all ihre[Em] Worte
Ich klopfe täglich auf[Am] Holz
Trag die Narben mit [G]Stolz
Ich bin wohl[F]auf
Mach meine Hand zur [G]Faust
Chorus
Ich glaub wieder an [Dm]Wunder
Glaub an jeden [F]Herzschlag
Glaube an die [Am]Kraft, die in mir [G]ruht
Ich glaub wieder an [Dm]Wunder
Denn sie gaben [F]mir den Mut
Sie sagten, [C]alles, [G]alles wird [F]gut
Sie [G]sagten, [C]alles, [G]alles wird [F]gut
[Dm]Es wird schon [G]wieder gut
Intro x4 (nach dem ersten mal kommt nochmal "Es wird schon wieder gut")
Ich glaub wieder an [Dm]Wunder
Glaub an jeden [F]Herzschlag
Glaube an die [Am]Kraft, die in mir [G]ruht
Ich glaub wieder an [Dm]Wunder
Denn sie gaben [F]mir den Mut
Sie sagten, [C]alles, [G]alles wird [F]gut
Sie [G]sagten, [C]alles, [G]alles wird [F]gut
[Dm]Es wird schon [G]wieder gut
Intro (Es wird schon wieder gut)
End on C

Important: The song above is NOT stored on the Chordie server. The original song is hosted at www.azchords.com. Chordie works as a search engine and provides on-the-fly formatting. Chordie does not index songs against artists'/composers' will. To remove this song please click here.

Text color:
Chord color:
Chord grids: 
Font size:    
Page size: 

Am C Dm Em F G
Rate #1 of 1 versions

Login - add to songbook

SHARE PAGE  



You need to log in to post comments