Guitar Tabs, Chords and Lyrics
Server problems seems to be fixed. Chordie has been experiencing problems with songs disappearing. These issues now seems to be fixed, but still verifying the fix. If you find anything strange, please email admin@chordie.com.


Sirenen  Madsen

[Intro] 
 
 D|------------------------------------------------------------|
 A|--------------------5-10--7---------------------------------|
 E|--0--0--p3-0-0--5-7------------0--0--p3-0-0--6-5-0--5--3----|
 D|----------------------------------------------7--5----------|
 A|--------------------5-10--7-------------------7--5----------|
 E|--0--0--p3-0-0--5-7------------0--0--p3-0-00--5--3----------| 2x

[Verse 1] 
 
 B|---------7-s-9--9----7-s-9--|
 D|---------7-s-7--7----7-s-9--|
 A|---------5-s-7--7----5-s-7--|
 E|--x0-x0------------x0-------|

Wasserwerfer, Tranengas alles
Viel zu [D]weit weg, keine Welt so [A]perfekt
Mord und Totschlag, Menschenhass
Kein groses Thema fur di[D]ch
Betrifft dich auch nicht[A]
Hast du bist jetzt gedac[B]ht
[Cborus] 
Horst du die Sir[C]enen
Sie singen ein L[G]ied
Wir sind hier dr[D]innen und drausen herrscht Krieg[A]
Horst du die Sirenen[C]
Sie weinen fur dich[G]
Ich kann's nicht versteh[D]en
Sag mir:
Warum horst du [A]sie nicht?
[Interlude] 
 
 D|------------------------------------------------------------|
 A|--------------------5-10--7---------------------------------|
 E|--0--0--p3-0-0--5-7------------0--0--p3-0-0--6-5-0--5--3----|
 D|----------------------------------------------7--5----------|
 A|--------------------5-10--7-------------------7--5----------|
 E|--0--0--p3-0-0--5-7------------0--0--p3-0-00--5--3----------|

[Verse 2] 
Panzer und Pistolen
Nur ein Bild in [D]HD lebensechter denn je[A]
E (1x)
Am Himmel fliegen Drohnen
Bringen die Post vor die[D] Tur
Machen ein Foto von dir[A]
Und du denkst[B]
Du bist frei, du bist frei
[Cborus] 
C G D A |2x
[Bridge] 
D E |4x
[Instrumental & Guitar solo] 
yet to come
[Cborus] 
C G D A |2x
[Outro] 
 
 D|------------------------------------------------------------|
 A|--------------------5-10--7---------------------------------|
 E|--0--0--p3-0-0--5-7------------0--0--p3-0-0--6-5-0--5--3----|
 D|--------------------------------------------------7---5---2--|
 A|--------------------5-10--7-----------------------7---5---2--|
 E|--0--0--p3-0-0--5-7------------0--0--p3-0-00------5---3---0--|

>> slowing down

Important: The song above is NOT stored on the Chordie server. The original song is hosted at www.azchords.com. Chordie works as a search engine and provides on-the-fly formatting. Chordie does not index songs against artists'/composers' will. To remove this song please click here.

Text color:
Chord color:
Chord grids: 
Font size:    
Page size: 

A B C D G
Rate #1 of 3 versions

Jango Player

Login - add to songbook

SHARE PAGE  



You need to log in to post comments