Guitar Tabs, Chords and Lyrics
Server problems seems to be fixed. Chordie has been experiencing problems with songs disappearing. These issues now seems to be fixed, but still verifying the fix. If you find anything strange, please email admin@chordie.com.


Here Comes the Rain  The Mavericks

The Mavericks
CD:Music For All Occasions
lead guitar drop D tuning
riff 1
 
 ---------------|
 ---------------|
 ---------------|
 ---------0-----|
 -------0---0h2-|
 -0-2/4---------|

********************
intro
[D] [G] [D] [G] [D]  
 
 --------------------------------------------------------|
 --------------------------------------------------------|
 --------------------------------------------------------|
 ---------0---------------------------0------------------|
 -------0---0h2--0h2-0--------------0---0h2--0h2-0-------|
 -0-2/4----------------4\2-0--0-2/4----------------4\2-0-|

Your love's a [F#]heartache[G] that's torn me a[A]part
[D] You watched my [F#]heart break[G] right from the [A]start
[Bm] You took everything you [G]wanted
[D] And now that you are [A]gone
D* G D* *play riff 1
Here comes the rain falling down on me
[G] Showered in [D]pain, nothing re[Bm]mains of what used to [Em]be
A D* G D* *play riff 1
Here comes the night dark as my soul
[G] There's no end in [D]sight, no shining [Bm]light, no love to [Em]hold
[A] Here comes the rain
[D] [G] [D] [G] [D]  
 
 --------------------5-------------------------7---5-----------------|
 -----8--7-5-----8------8-7-5-------8--7-5-------8---7-8---5h7p5-----|
 ---7--------7-----7----------7---7--------7-------------9-------6-7-|
 --------------7-----------------------------7-----------------------|
 -5-----------------------------5------------------------------------|
 --------------------------------------------------------------------|

I must have been [F#]dreaming[G] I must have been [A]blind
[D] I never th[F#]ought you[G] could be so un[A]kind
[Bm] Tomorrow I'll forg[G]et you
[D] But I can't forget you [A]now
D* G D* *play riff 1
Here comes the rain falling down on me
[G] Showered in [D]pain, nothing re[Bm]mains of what used to [Em]be
A D* G D* *play riff 1
Here comes the night dark as my soul
[G] There's no end in [D]sight, no shining [Bm]light, no love to [Em]hold
[A] Here comes the rain
[D] [G] [D] [G] [D]  
 
 ---------------------------7-5--------------------5--------5---|
 -----8--7-5-----8---7--5-------7---8--7-5-----8------8-7-5-----|
 ---7--------7-----7------7-------7--------7-----7------------7-|
 --------------7-----------------------------7------------------|
 -5-------------------------------------------------------------|
 ---------------------------------------------------------------|

[(D)] [Bm] [G] [A]  
 
 -----------------------------------------|
 -----------------------------------------|
 -----------------------------------------|
 ------------------0-2/4---2--2h4-2-------|
 ---------0-1-2--2-------5----------4\2-0-|
 -0-0-2/4---------------------------------|

D* G D* *play riff 1
Here comes the rain falling down on me
[G] Showered in [D]pain, nothing re[Bm]mains of what used to [Em]be
A D* G D* *play riff 1
Here comes the night dark as my soul
[G] There's no end in [D]sight, no shining [Bm]light, no love to [Em]hold
A D* *play riff 1
Here comes the rain
G D* *play riff 1
Here comes the rain
G D* *play riff 1
Here comes the rain
G D* *play riff 1
Here comes the rain
G D G D G D (fade out)
Here comes the rain

Important: The song above is NOT stored on the Chordie server. The original song is hosted at www.azchords.com. Chordie works as a search engine and provides on-the-fly formatting. Chordie does not index songs against artists'/composers' will. To remove this song please click here.

Text color:
Chord color:
Chord grids: 
Font size:    
Page size: 

A Bm D Em F# G
Rate #1 of 3 versions

Login - add to songbook

SHARE PAGE  



You need to log in to post comments