Guitar Tabs, Chords and Lyrics
Server problems seems to be fixed. Chordie has been experiencing problems with songs disappearing. These issues now seems to be fixed, but still verifying the fix. If you find anything strange, please email admin@chordie.com.


Finally Home  MercyMe

FINALLY HOME - MercyMe (c) 2007
Tuning: Standard
Note: The guitarist does a lot of slight changes to a basic formula. It sounds
fine if you just use verse 2 for both verses.
Chord Chart
[E/A] [A2] [E] [C#m7] [Bsus]  
 
 e|---X-------X------X------X------X------------------------------------------|
 B|---X-------0------0------5------0------------------------------------------|
 G|---1-------2------1------6------4------------------------------------------|
 D|---2-------2------2------6------4------------------------------------------|
 A|---0-------0------X------4------2------------------------------------------|
 E|---X-------X------X------X------X------------------------------------------|

Intro: (Play 2x)
[E/A] [E/A] [E] [E] 
 
 e|---------------------------------------------------------------------------|
 B|--------------------------------------0-2-0-----------0-2-0----------------|
 G|------1-2-1-----------1-2-1-------1-1-------2-1-1-1-1-------2-1-1----------|
 D|--2-4-------4-2-2-2-4-------4-2-22-2-2-2-2-2-2-2-2-2-2-2-2-2-2-2-----------|
 A|-0-0-0-0-0-0-0-0-0-0-0-0-0-0-0-0-------------------------------------------|
 E|---------------------------------------------------------------------------|

Verse 1
[C#m7] [E/A] [E] [E] 
 
 e|---------------------------------------------------------------------------|
 B|--------6-----------------------------0-----0---------0-----0--------------|
 G|----6-------6---------1-2-1-------1-1---1-1---1-1-1-1---1-1---1-1----------|
 D|--6---6---6---6-6-2-4-------4-2-22-2-2-2-2-2-2-2-2-2-2-2-2-2-2-2-----------|
 A|-4-4-4-4-4-4-4-4-0-0-0-0-0-0-0-0-------------------------------------------|
 E|---------------------------------------------------------------------------|

[C#m7] [E/A] [E] [E] 
 
 e|---------------------------------------------------------------------------|
 B|------6-------6-----------------------0---------------0--------------------|
 G|----6---6---6---6-----1-2-1-------1-1---1-1-2-1-1-1-1---1-1-2-1-1----------|
 D|--6-------6-------2-4-------4-2-22-2-2-2-2-2-2-2-2-2-2-2-2-2-2-2-----------|
 A|-4-4-4-4-4-4-4-4-0-0-0-0-0-0-0-0-------------------------------------------|
 E|---------------------------------------------------------------------------|

[Bsus] [A2] [E] [E] 
 
 e|---------------------------------------------------------------------------|
 B|------4-------4---------2-------------0---------------0--------------------|
 G|----4---4---4---4---2-------2-----1-1---1-1-2-1-1-1-1---1-1-2-1-1----------|
 D|--4-------4-------2---2---2---2-22-2-2-2-2-2-2-2-2-2-2-2-2-2-2-2-----------|
 A|-2-2-2-2-2-2-2-2-0-0-0-0-0-0-0-0-------------------------------------------|
 E|---------------------------------------------------------------------------|

Chorus - Play 2x
[A2] [E] [E] 
 
 e|---------------------------------------------------------------------------|
 B|------------0---------------0----------0-2-0-----------0-2-0---------------|
 G|----1---------------2-------------1-1-------2-1-1-1-1-------2-1-1----------|
 D|--2---2-2-2---2-2-2---2-2-2---2-22-2-2-2-2-2-2-2-2-2-2-2-2-2-2-2-----------|
 A|-0-0-0-0-0-0-0-0-0-0-0-0-0-0-0-0-------------------------------------------|
 E|---------------------------------------------------------------------------|

Verse 2
[C#m7] [E/A] [E] [E] 
 
 e|---------------------------------------------------------------------------|
 B|------6-------6-----------------------0---------------0--------------------|
 G|----6---6---6---6-----1-2-1-------1-1---1-1-2-1-1-1-1---1-1-2-1-1----------|
 D|--6-------6-------2-4-------4-2-22-2-2-2-2-2-2-2-2-2-2-2-2-2-2-2-----------|
 A|-4-4-4-4-4-4-4-4-0-0-0-0-0-0-0-0-------------------------------------------|
 E|---------------------------------------------------------------------------|

[C#m7] [E/A] [E] [E] 
 
 e|---------------------------------------------------------------------------|
 B|------6-------6---------------------------------------0--------------------|
 G|----6---6---6---6-----1-2-1-------1-1-1-1-1-2-1-1-1-1---1-1-2-1-1----------|
 D|--6-------6-------2-4-------4-2-22-2-2-2-2-2-2-2-2-2-2-2-2-2-2-2-----------|
 A|-4-4-4-4-4-4-4-4-0-0-0-0-0-0-0-0-------------------------------------------|
 E|---------------------------------------------------------------------------|

[Bsus] [A2] [E] [E] 
 
 e|----------------------------0----------------------------------------------|
 B|------4-------4-------2-------2-----------------------0--------------------|
 G|----4---4---4---4---2-----2-------1-1-1-1-1-2-1-1-1-1---1-1-2-1-1----------|
 D|--4-------4-------2-----2-------22-2-2-2-2-2-2-2-2-2-2-2-2-2-2-2-----------|
 A|-2-2-2-2-2-2-2-2-0-0-0-0-0-0-0-0-------------------------------------------|
 E|---------------------------------------------------------------------------|

Repeat Chorus
Bridge - Play 2x
[Bsus] [A2] [E] [E] 
 
 e|----------------------------2----------------------------------------------|
 B|------4-------4-------2---2---2-------0-2-0-----------0-2-0----------------|
 G|----4---4---4---4---2---2-------2-1-1-------2-1-1-1-1-------2-1-1----------|
 D|--4-------4-------2--------------2-2-2-2-2-2-2-2-2-2-2-2-2-2-2-2-----------|
 A|-2-2-2-2-2-2-2-2-0-0-0-0-0-0-0-0-------------------------------------------|
 E|---------------------------------------------------------------------------|

Repeat Chorus
Ending
[E/A] [E]  
 
 e|--------------------0-2-4-0------------------------------------------------|
 B|------------0---------------2-0-0------------------------------------------|
 G|----1----------------------------1-----------------------------------------|
 D|--2---2-2-2---2-2-2--------------2-----------------------------------------|
 A|-0-0-0-0-0-0-0-0-0-0-0-0-0-0-0-0-2-----------------------------------------|
 E|---------------------------------------------------------------------------|


Important: The song above is NOT stored on the Chordie server. The original song is hosted at www.azchords.com. Chordie works as a search engine and provides on-the-fly formatting. Chordie does not index songs against artists'/composers' will. To remove this song please click here.

Text color:
Chord color:
Chord grids: 
Font size:    
Page size: 

A2 Bsus C#m7 E
Rate #2 of 8 versions

Jango Player

Login - add to songbook

SHARE PAGE  




You need to log in to post comments