Guitar Tabs, Chords and Lyrics
Server problems seems to be fixed. Chordie has been experiencing problems with songs disappearing. These issues now seems to be fixed, but still verifying the fix. If you find anything strange, please email admin@chordie.com.


Flawless  MercyMe

Tuning: E,A,D,G,B,e
Intro: A, (A riff for lead)
These are the riffs that the lead guitar can play during the verses:
A riff:
 
 e|---------------------------------------------------------------|
 B|-----2-----2------2------2-------------------------------------|
 G|--2----2-2----2-2----2-2---------------------------------------|
 D|---------------------------------------------------------------|
 A|---------------------------------------------------------------|
 E|---------------------------------------------------------------|

E riff:
 
 e|---------------------------------------------------------------|
 B|---------------------------------------------------------------|
 G|-----1-----1------1------1-------------------------------------|
 D|--2----2-2----2-2----2-2---------------------------------------|
 A|---------------------------------------------------------------|
 E|---------------------------------------------------------------|

D riff:
 
 e|---------------------------------------------------------------|
 B|-----3-----3------3------3-------------------------------------|
 G|--2----2-2----2-2----2-2---------------------------------------|
 D|---------------------------------------------------------------|
 A|---------------------------------------------------------------|
 E|---------------------------------------------------------------|

Verse 1:
There's got to be more [A]
Than going [A]back and forth
From doing [E]right to doing wrong
'Cause we were [E]taught that's who we are
Come on [D]get in line right behind me
[D]You along with everybody [A]
Thinking there's worth in what you[A] do
Hook:
[A] Then Like a hero who takes the stage when
[E]We're on the edge of our seats saying it's too late[D]
Well [D]let me introduce you to a[A]mazing grace
Chorus:
No [A]matter the bumps
No [A]matter the bruises
No [E]matter the scars
[E]Still the truth is
The cros[D]s has made
The cros[D]s has made you flaw[A]less
No [A]matter the hurt
Or [A]how deep the wound is
No [E]matter the pain
[E]Still the truth is
The cros[D]s has made
The cros[D]s has made you flaw[A]less
Verse 2:
Could it possibly be [A]
That we simply [A]can't believe
That this [E]unconditional
Kind of [E]love would be enough
To[D] take a filthy wretch like this
[D] And wrap him up in righteousness
[A] But that's exactly what He did
Chorus:
No[A] matter the bumps
No [A]matter the bruises
No [E]matter the scars
[E]Still the truth is
The cros[D]s has made
The cros[D]s has made you flaw[A]less
No [A]matter the hurt
Or [A]how deep the wound is
No [E]matter the pain
[E]Still the truth is
The cros[D]s has made
The cros[D]s has made you flaw[A]less
Bridge:
Oh yeah[G] ooooh ooh ooh
[D]Ooooh ooh ooh
[A] Take a breath smile and say
Right [A]here right now I'm ok
Bec[G]ause (ooooh ooh ooh) the [D]cross was e[A]nough
Hook:
[A] Then Like a hero who takes the stage when
[E]We're on the edge of our seats saying it's too late[D]
Well [D]let me introduce you to [A]grace grace
[D]God's grace [A]
Chorus:
[A]No matter the bumps
No [A]matter the bruises
No [E]matter the scars
[E]Still the truth is
The cros[D]s has made
The cros[D]s has made you flaw[A]less
No [A]matter the hurt
Or [A]how deep the wound is
No [E]matter the pain
[E]Still the truth is
The cros[D]s has made
The cros[D]s has made you flaw[A]less
Chorus II:
[A] No matter what they say
[A] Or what you think you [E]are
The day you called His [E]name
He made you [D]flawless
[D] He made you[A] flawless
Chorus:
[A]No matter the bumps
No [A]matter the bruises
No [E]matter the scars
[E]Still the truth is
The cros[D]s has made
The cros[D]s has made you flaw[A]less

Important: The song above is NOT stored on the Chordie server. The original song is hosted at www.azchords.com. Chordie works as a search engine and provides on-the-fly formatting. Chordie does not index songs against artists'/composers' will. To remove this song please click here.

Text color:
Chord color:
Chord grids: 
Font size:    
Page size: 

A D E G
Rate #1 of 2 versions

Jango Player

Login - add to songbook

SHARE PAGE  




You need to log in to post comments