Guitar Tabs, Chords and Lyrics
Major upgrade!! After one year development the new version of Chordie is now online! Please give feedback.


January 1979  mewithoutYou

Q=170
[4/4] Gtr I
 
 |-11--------|-(11)----|
 |-----------|---------|
 |-----------|---------|
 |-----------|---------|
 |-----------|---------|
 |-----------|---------|

[Em7]Gtr I[G#5]
4x
 
 ||------------------|-----------------|-----------------|-------------------||
 ||o-----------------|-----------------|-----------------|------------------o||
 ||--8-8-8-8-8-8-8-8-|-8-8-8-8-8-8-8-8-|-8-8-8-8-8-8-8-8-|-8-8-8-8-8-8-8-8---||
 ||--9-9-9-9-9-9-9-9-|-9-9-9-9-9-9-9-9-|-6-6-6-6-6-6-6-6-|-6-6-6-6-6-6-6-6---||
 ||o-7-7-7-7-7-7-7-7-|-7-7-7-7-7-7-7-7-|-6-6-6-6-6-6-6-6-|-6-6-6-6-6-6-6-6--o||
 ||------------------|-----------------|-6-6-6-6-6-6-6-6-|-6-6-6-6-6-6-6-6---||

Verse 1
[Em7] [G#5] 4x
 
 ||------------------|-----------------|-----------------|-------------------||
 ||o-----------------|-----------------|-----------------|------------------o||
 ||--8-8-8-8-8-8-8-8-|-8-8-8-8-8-8-8-8-|-8-8-8-8-8-8-8-8-|-8-8-8-8-8-8-8-8---||
 ||--9-9-9-9-9-9-9-9-|-9-9-9-9-9-9-9-9-|-6-6-6-6-6-6-6-6-|-6-6-6-6-6-6-6-6---||
 ||o-7-7-7-7-7-7-7-7-|-7-7-7-7-7-7-7-7-|-6-6-6-6-6-6-6-6-|-6-6-6-6-6-6-6-6--o||
 ||------------------|-----------------|-6-6-6-6-6-6-6-6-|-6-6-6-6-6-6-6-6---||

Chorus
[D#madd11/C#] [D#m/C#] [Bsus4D#suG#m]  
 
 ||----------------------|---------------------|
 ||o---------------------|---------------------|
 ||----------------------|---------------------|
 ||---x-4--4-4--4-x--x-x-|--x-4--4-4--4-2--4-6-|
 ||o--x-4--4-4--4-x--x-x-|--x-4--4-4--4-2--4-6-|
 ||----------------------|---------------------|

|
| Gtr II
 
 ||--11---11---11---11---|-11---11---11---11---|
 ||o--9----9----9----9---|--9---11---11---11---|
 ||----------------------|---------------------|
 ||----------------------|---------------------|
 ||o---------------------|---------------------|
 ||----------------------|---------------------|

[Badd9/F#]  
 
 |---------------------|----------------------|
 |---------------------|----------------------|
 |---------------------|----------------------|
 |---------------------|----------------------|
 |--x-6--6-6--6-x--x-x-|--x-4--4-6--6-x--6-x--|
 |--x-6--6-6--6-x--x-x-|--x-4--4-6--6-x--6-x--|

|
 
 |-11---11---11---11---|-11---11---11---11----|
 |-12---12---12---12---|-12---12---12---12----|
 |---------------------|----------------------|
 |---------------------|----------------------|
 |---------------------|----------------------|
 |---------------------|----------------------|

[D#madd11/C#] [D#m/C#] [Bsus4D#suG#m]  
 
 |---------------------|---------------------|
 |---------------------|---------------------|
 |---------------------|---------------------|
 |--x-4--4-4--4-x--x-x-|--x-4--4-4--4-2--4-6-|
 |--x-4--4-4--4-x--x-x-|--x-4--4-4--4-2--4-6-|
 |---------------------|---------------------|

|
 
 |-11---11---11---11---|-11---11---11---11---|
 |--9----9----9----9---|--9---11---11---11---|
 |---------------------|---------------------|
 |---------------------|---------------------|
 |---------------------|---------------------|
 |---------------------|---------------------|

[Badd9/F#]  
 
 |---------------------|----------------------||
 |---------------------|---------------------o||
 |---------------------|----------------------||
 |---------------------|----------------------||
 |--x-6--6-6--6-x--x-x-|--x-4--4-6--6-x--6-x-o||
 |--x-6--6-6--6-x--x-x-|--x-4--4-6--6-x--6-x--||

|
 
 |-11---11---11---11---|-11---11---11---11----||
 |-12---12---12---12---|-12---12---12---12---o||
 |---------------------|----------------------||
 |---------------------|----------------------||
 |---------------------|---------------------o||
 |---------------------|----------------------||

Verse 2
[Em7] [G#5] 4x
 
 ||------------------|-------------------|-----------------|-------------------||
 ||o-----------------|-------------------|-----------------|------------------o||
 ||--8-8-8-8-8-8-8-8-|--8-8-8-8--8-8-8-8-|-8-8-8-8-8-8-8-8-|-8-8-8-8-8-8-8-8---||
 ||--9-9-9-9-9-9-9-9-|--9-9-9-9--9-9-9-9-|-6-6-6-6-6-6-6-6-|-6-6-6-6-6-6-6-6---||
 ||o-7-7-7-7-7-7-7-7-|--7-7-7-7--7-7-7-7-|-6-6-6-6-6-6-6-6-|-6-6-6-6-6-6-6-6--o||
 ||------------------|-------------------|-6-6-6-6-6-6-6-6-|-6-6-6-6-6-6-6-6---||

|
| 4x
 
 ||------------------|-------------------|-----------------|-------------------||
 ||o-9---------------|-11-------12S======|=9---------------|-7-------5--------o||
 ||------------------|-------------------|-----------------|-------------------||
 ||------------------|-------------------|-----------------|-------------------||
 ||o-----------------|-------------------|-----------------|------------------o||
 ||------------------|-------------------|-----------------|-------------------||

Bridge
[G#5]Gtr III
 
 |-----11---11-11---11-|-------11---11-11---11-|
 |-9-9----9-------9----|--9--9----9-------9----|
 |---------------------|-----------------------|
 |---------------------|-----------------------|
 |---------------------|-----------------------|
 |---------------------|-----------------------|

|
| Gtr V
 
 |---------------------|-----------------------|
 |-----------9---------|-(9)---------9---------|
 |---------------------|-----------------------|
 |---------------------|-----------------------|
 |---------------------|-----------------------|
 |---------------------|-----------------------|
 |-------11---11-11---11-|-------11---11-11---11-|
 |--9--9----9-------9----|--9--9----9-------9----|
 |-----------------------|-----------------------|
 |-----------------------|-----------------------|
 |-----------------------|-----------------------|
 |-----------------------|-----------------------|

|
 
 |-----------------------|-----------------------|
 |-(9)---------9---------|-(9)---------9---------|
 |-----------------------|-----------------------|
 |-----------------------|-----------------------|
 |-----------------------|-----------------------|
 |-----------------------|-----------------------|

[B/D#]  
 
 |-------------------------|---------------------------|
 |-------12-------12----12-|---------12-------12----12-|
 |-------------------------|---------------------------|
 |-13-13----13-13----13----|--13--13----13-13----13----|
 |-------------------------|---------------------------|
 |-------------------------|---------------------------|

|
| Gtr II
 
 |-11----------------------|-(11)----------------------|
 |-------------------------|---------------------------|
 |-------------------------|---------------------------|
 |-------------------------|---------------------------|
 |-------------------------|---------------------------|
 |-------------------------|---------------------------|
 |---------------------------|---------------------------|
 |---------12-------12----12-|---------12-------12----12-|
 |---------------------------|---------------------------|
 |--13--13----13-13----13----|--13--13----13-13----13----|
 |---------------------------|---------------------------|
 |---------------------------|---------------------------|

|
 
 |-(11)----------------------|-(11)----------------------|
 |---------------------------|---------------------------|
 |---------------------------|---------------------------|
 |---------------------------|---------------------------|
 |---------------------------|---------------------------|
 |---------------------------|---------------------------|

[B/G#]  
 
 |----------------|------------------|----------------|------------------|
 |----------------|------------------|----------7-----|------------------|
 |----------------|---------8----8---|-------8-----8--|---9---8----------|
 |--11\--x----11--|-------9----9---9-|---9------------|---------9---(9)--|
 |----------------|--11--------------|----------------|------------------|
 |----------------|------------------|----------------|------------------|

|
 
 |-(11)-----------|-(11)-------------|-(11)-----------|-(11)-------------|
 |----------------|------------------|----------------|------------------|
 |----------------|------------------|----------------|------------------|
 |----------------|------------------|----------------|------------------|
 |----------------|------------------|----------------|------------------|
 |----------------|------------------|----------------|------------------|

Interlude
N.C.
Gtr I
 
 |-----------------------|-----------------------|
 |-----------------------|-----------------------|
 |--11---11--11-11-11-11-|--11---11--11-11-11S13-|
 |---x----x---x--x--x--x-|---x----x---x--x--xS=x-|
 |---9----9---9--9--9--9-|---9----9---9--9--9S11-|
 |-----------------------|-----------------------|

|
| Gtr II
 
 |-(11)------------------|-(11)------------------|
 |-----------------------|-----------------------|
 |-----------------------|-----------------------|
 |-----------------------|-----------------------|
 |-----------------------|-----------------------|
 |-----------------------|-----------------------|
 |-----------------------|---------------------------|
 |-----------------------|---------------------------|
 |--13---13--13-13-13S16-|--16--16-16-16-16-16-16-16-|
 |---x----x---x--x--xS=x-|---x---x--x--x--x--x--x--x-|
 |--11---11--11-11-11S14-|--14--14-14-14-14-14-14-14-|
 |-----------------------|---------------------------|

|
 
 |-(11)------------------|-(11)----------------------|
 |-----------------------|---------------------------|
 |-----------------------|---------------------------|
 |-----------------------|---------------------------|
 |-----------------------|---------------------------|
 |-----------------------|---------------------------|

Verse 3
[Em7] [G#5] 4x
 
 ||------------------|-----------------|-----------------|-------------------||
 ||o-----------------|-----------------|-----------------|------------------o||
 ||--8-8-8-8-8-8-8-8-|-8-8-8-8-8-8-8-8-|-8-8-8-8-8-8-8-8-|-8-8-8-8-8-8-8-8---||
 ||--9-9-9-9-9-9-9-9-|-9-9-9-9-9-9-9-9-|-6-6-6-6-6-6-6-6-|-6-6-6-6-6-6-6-6---||
 ||o-7-7-7-7-7-7-7-7-|-7-7-7-7-7-7-7-7-|-6-6-6-6-6-6-6-6-|-6-6-6-6-6-6-6-6--o||
 ||------------------|-----------------|-6-6-6-6-6-6-6-6-|-6-6-6-6-6-6-6-6---||

Chorus
[D#madd11/C#] [D#m/C#] [Bsus4D#suG#m]  
 
 ||----------------------|---------------------|
 ||o---------------------|---------------------|
 ||----------------------|---------------------|
 ||---x-4--4-4--4-x--x-x-|--x-4--4-4--4-2--4-6-|
 ||o--x-4--4-4--4-x--x-x-|--x-4--4-4--4-2--4-6-|
 ||----------------------|---------------------|

|
| Gtr II
 
 ||--11---11---11---11---|-11---11---11---11---|
 ||o--9----9----9----9---|--9---11---11---11---|
 ||----------------------|---------------------|
 ||----------------------|---------------------|
 ||o---------------------|---------------------|
 ||----------------------|---------------------|

[Badd9/F#]  
 
 |---------------------|----------------------|
 |---------------------|----------------------|
 |---------------------|----------------------|
 |---------------------|----------------------|
 |--x-6--6-6--6-x--x-x-|--x-4--4-6--6-x--6-x--|
 |--x-6--6-6--6-x--x-x-|--x-4--4-6--6-x--6-x--|

|
 
 |-11---11---11---11---|-11---11---11---11----|
 |-12---12---12---12---|-12---12---12---12----|
 |---------------------|----------------------|
 |---------------------|----------------------|
 |---------------------|----------------------|
 |---------------------|----------------------|

[D#madd11/C#] [D#m/C#] [Bsus4D#suG#m]  
 
 |---------------------|---------------------|
 |---------------------|---------------------|
 |---------------------|---------------------|
 |--x-4--4-4--4-x--x-x-|--x-4--4-4--4-2--4-6-|
 |--x-4--4-4--4-x--x-x-|--x-4--4-4--4-2--4-6-|
 |---------------------|---------------------|

|
 
 |-11---11---11---11---|-11---11---11---11---|
 |--9----9----9----9---|--9---11---11---11---|
 |---------------------|---------------------|
 |---------------------|---------------------|
 |---------------------|---------------------|
 |---------------------|---------------------|

[Badd9/F#]  
 
 |---------------------|----------------------||
 |---------------------|---------------------o||
 |---------------------|----------------------||
 |---------------------|----------------------||
 |--x-6--6-6--6-x--x-x-|--x-4--4-6--6-x--6-x-o||
 |--x-6--6-6--6-x--x-x-|--x-4--4-6--6-x--6-x--||

|
 
 |-11---11---11---11---|-11---11---11---11----||
 |-12---12---12---12---|-12---12---12---12---o||
 |---------------------|----------------------||
 |---------------------|----------------------||
 |---------------------|---------------------o||
 |---------------------|----------------------||

Outro
[D#m/F#]Gtr III[G#5]
 
 ||-----11-----11------|----11-----11------|
 ||o-------------------|-------------------|
 ||--11-----11-----11--|-13-----13-----13--|
 ||--------------------|-------------------|
 ||o-------------------|-------------------|
 ||--------------------|-------------------|
 |----11-----11------|----11-----11--------||
 |-------------------|--------------------o||
 |-13-----13-----13--|-13-----13-----13----||
 |-------------------|---------------------||
 |-------------------|--------------------o||
 |-------------------|---------------------||

[G#m/F#] [G#m]  
 
 ||-----11-----11------|----11-----11------|
 ||o-------------------|-------------------|
 ||--11-----11-----11--|-13-----13-----13--|
 ||--------------------|-------------------|
 ||o-------------------|-------------------|
 ||--------------------|-------------------|

|
| Gtr IV
 
 ||--------------------|--4-------------4--|
 ||o----------------4--|---------4---------|
 ||----------4---------|-------------------|
 ||---6----------------|-------------------|
 ||o-------------------|-------------------|
 ||--------------------|-------------------|

3x
 
 |----11-----11------|-----11-----11--------||
 |-------------------|---------------------o||
 |-13-----13-----13--|-13------13-----13----||
 |-------------------|----------------------||
 |-------------------|---------------------o||
 |-------------------|----------------------||

|
| 3x
 
 |--4----------------|-(4)------------------||
 |--4----------------|-(4)-----------------o||
 |--4----------------|-(4)------------------||
 |--6----------------|-(6)------------------||
 |-------------------|---------------------o||
 |-------------------|----------------------||

[G#m/F#] [G#m]  
 
 |----11-----11------|----11-----11------|
 |-------------------|-------------------|
 |-11-----11-----11--|-13-----13-----13--|
 |-------------------|-------------------|
 |-------------------|-------------------|
 |-------------------|-------------------|

|
 
 |-------------------|--4-------------4--|
 |----------------4--|---------4---------|
 |---------4---------|-------------------|
 |--6----------------|-------------------|
 |-------------------|-------------------|
 |-------------------|-------------------|
 |----11-----11------|-----11-----11------*|
 |-------------------|--------------------*|
 |-13-----13-----13--|-13------13-----13--*|
 |-------------------|--------------------*|
 |-------------------|--------------------*|
 |-------------------|--------------------*|

|
 
 |--4----------------|-(4)----------------*|
 |--4----------------|-(4)----------------*|
 |--4----------------|-(4)----------------*|
 |--6----------------|-(6)----------------*|
 |-------------------|--------------------*|
 |-------------------|--------------------*| 


Important: The song above is NOT stored on the Chordie server. The original song is hosted at www.azchords.com. Chordie works as a search engine and provides on-the-fly formatting. Chordie does not index songs against artists'/composers' will. To remove this song please click here.

Text color:
Chord color:
Chord grids: 
Font size:    
Page size: 

B/G# Badd9/F# D#m/C# D#m/F# Em7 G#5 G#m G#m/F#
Rate #0 of 2 versions

Jango Player

Login - add to songbook

SHARE PAGE  




You need to log in to post comments