Guitar Tabs, Chords and Lyrics
Server problems seems to be fixed. Chordie has been experiencing problems with songs disappearing. These issues now seems to be fixed, but still verifying the fix. If you find anything strange, please email admin@chordie.com.


Waiting For You  Mississippi John Hurt

Waiting For You (I Forgive You Before I Go)
Mississippi John Hurt
Standard tuning
(There are to guitars playing. The tab is based on Hurts guitar. The guitar is tuned
a quarter, between F# og G)
Intro
¬ĺ : . . : . .
 
 |-------3----------|------------------|
 |------------------|-------0-----0----|
 |---------------0--|-------0-----0----|
 |------------------|------------------|
 |------------------|------------------|
 |-------------3----|-3----------------|

Vers Will
[G]: . . : . . : . . : . .
 
 |------------------|------------------|------------------|------------------|
 |-------0-----0----|-------0-----0----|-------0-----0----|-------0----------|
 |-------0-----0----|-------0-----0----|-------0-----0----|-------0----------|
 |------------------|------------------|------------------|------------------|
 |------------------|------------------|------------------|-------------2----|
 |-3----------------|-3----------------|-3----------------|-3----------------|

you be faith - ful to me? Is
[C]: . . : . . : [G] . . : . .
 
 |------------------|------------------|-------3----(3)---|-------3----------|
 |-------1-----1----|-------1----------|------------------|------------------|
 |-------0-----0----|-------0-------0--|----------0-----0-|----------0-------|
 |------------------|-------------2----|-------0-----0----|-------0-------0--|
 |-3----------------|-3----------------|------------------|-------------2----|
 |------------------|------------------|-3----------------|-3----------------|

your heart good and true?
[C]: . . : . . : [G] . . : . .
 
 |------------------|------------------|------------------|------------------|
 |-------1-----1----|-------1----------|-------0-----0----|-------0-----0----|
 |-------0-----0----|-------0-------0--|-------0-----0----|-------0-----0----|
 |------------------|-------------2----|------------------|------------------|
 |-3----------------|-3----------------|------------------|------------------|
 |------------------|------------------|-3----------------|-3----------------|

While you sow sorrow, a - and in pain,
1.__________________________________________________________________________
[D]: . . : . . : . . : . . .
 
 |------------------|------------------|-------2-----2----|-1-----0----------|
 |-------3-----3----|-------3-----3----|----------3-----3-|----3-------------|
 |-------2-----2----|-------2-----2----|-------2-----2----|---------------0--|
 |-0----------------|-0----------------|-0----------------|-0-----2s0--------|
 |------------------|------------------|------------------|------------------|
 |------------------|------------------|------------------|------------3-----|

Darling, I'm waiting for you. Because‚?¶
2.__________________________________________________________________________
[D]: . . : . . : [G] . . : . .
 
 |------------------|------------------|-------3----------|------------------|
 |-------3-----3----|-------3----------|------------------|-------0-----0----|
 |-------2-----2----|-------2--------0-|----------0-----0-|-------0-----0----|
 |-0----------------|-0-----------0----|-------0-----0----|------------------|
 |------------------|------------------|------------------|------------------|
 |------------------|------------------|-3----------------|-3----------------|

‚?¶give you be - fore I go
Chords (strumming version):
Waiting For You (I Forgive You Before I Go)
Mississippi John Hurt
[G]Will you be faithful to me?
Is [C]your heart good and [G]true?
[C]While you sow sorrow, [G]and in pain,
D *(riff)
Darling, I'm waiting for you.
[G]Because of your cruel ways,
I may [C]never live to [G]know.
In [C]justice to [G]my true love,
I'll fo[D]rgive you before [G]I go.
rep. 1 & 2
instrumental 1 & 2
If we cannot meet again
Till our troubles all are through,
Beyond the river of Jordan,
I'll still be waiting for you.
rep. 2
instrumental 1 & 2
When you seek my grassy mount,
Then our trouble all is through.
My days have been shortened
Whilst I've been waiting for you.
rep. 2
*riff:
[D] . : . . :[G]
 
 ---2--2--2-----1-----0----------|
 ---3--3--3-----3-----3----------|
 ---2--2--2----------------------|
 ---------------0-----2s0---0----|
 ---------------------------2----|
 ---------------------------3----|


Important: The song above is NOT stored on the Chordie server. The original song is hosted at www.azchords.com. Chordie works as a search engine and provides on-the-fly formatting. Chordie does not index songs against artists'/composers' will. To remove this song please click here.

Text color:
Chord color:
Chord grids: 
Font size:    
Page size: 

C D G
Rate #1 of 1 versions

Login - add to songbook

SHARE PAGE  



You need to log in to post comments