Guitar Tabs, Chords and Lyrics
Server problems seems to be fixed. Chordie has been experiencing problems with songs disappearing. These issues now seems to be fixed, but still verifying the fix. If you find anything strange, please email admin@chordie.com.


One of Beauty's Daughters  My Dying Bride

M Y D Y I N G B R I D E
[-] 
O N E O F B E A U T Y ' S D A U G H T E R S
A LINE OF DEATHLESS KINGS
(c) Peaceville Records - 2006
Standard Tuning
(5-String Bass)
[B] [E] [A] [D] [G] 
Tempo = 70 BPM
Time Signature = 4/4
 
 -----------------------------

PADDY MCMULLAN
Version 2.0
20th January 2010
(Corrections Outlined at Bottom of Tab)
 
 -----------------------

Tablature Symbols Used:
p - Pull-Off
h - Hammer-On
\ - Slide Down to/Down From
/ - Slide Up To/Up From
( / ) - Legato Slide
( ) - Ghost Note/Tied Note/Implied Note
REST - Rest and sustain rest for duration of blank space
Riff 1: Play 4 times
 
 ||-----------------------| |
 ||-----------------------|*|
 ||-----------------------| |
 ||--5--------------------|*|
 ||-------0--2------2--0--| |

Riff 2: Play 4 times
 
 ||--------------------------| |
 ||--------------------------|*|
 ||--------------------------| |
 ||--5---5-------------------|*|
 ||--------2--2----0--0h2-0--| |

Rest for 3 bars, then play the following bar once before proceeding
 
 ||--R- ---------||
 ||--E- ---------||
 ||--S- ---------||
 ||--T- -3-3-3-3-||
 ||-----------------------||

Riff 3: Play 5 times
 
 ||------------------------------|------------------------------|
 ||------------------------------|------------------------------|
 ||------------------------------|------------------------------|
 ||--2--2--3p 2-2--2--2--5p 2-2--|--2--2--3p 2-2--2--2--5p 2-2--|
 |------------------------------|------------------------------| |
 |------------------------------|------------------------------|*|
 |------------------------------|----------------------1-1-1-1-|*|
 |--2--2--3p 2-2--2--2--5p 2-2--|--2--2--3p 2-2--2--2----------| |

Riff 4: Play 4 times
 
 ||------------------------------|------------------------------|
 ||------------------------------|------------------------------|
 ||------------------------------|------------------------------|
 ||------------------------------|------------------------------|
 ||--2--2--3p 2-2--2--2--5p 2-2--|--2--2--3p 2-2--2--2--5p 2-2--|
 |------------------------------|------------------------------| |
 |------------------------------|------------------------------|*|
 |------------------------------|------------------------------| |
 |------------------------------|----------------------3-3-3-3-|*|
 |--2--2--3p 2-2--2--2--5p 2-2--|--2--2--3p 2-2--2--2----------| |

Play Riff 3 four times
Play Riff 4 four times
Play Riff 1 four times
Play Riff 2 four times
Riff 5: Play once
 
 ||--------------------|--------------------|----------------------|
 ||--------------------|--------------------|----------------------|
 ||--------------------|--------------------|----------------------|
 ||--------------------|--------------------|----------------------|
 ||--5----5------------|--4----4------------|--5--------5-5--------|
 |----------------------|--------------------|--------------------|
 |----------------------|--------------------|--------------------|
 |----------------------|--------------------|--------------------|
 |----------------------|--------------------|--------------------|
 |--4-----------2----4--|--5----5------------|--4----4------------|
 |----------------------|-------------------|-------------------||
 |----------------------|-------------------|-------------------||
 |----------------------|-------------------|-------------------||
 |----------------------|-------------------|-------------------||
 |--5--------5-5--------|--4----------------|--(4)--------------||

[End]  
Tab summary: Riff 1 X 4
Riff 2 X 4
Riff 3 X 5
Riff 4 X 4
Riff 3 X 4
Riff 4 X 4
Riff 1 X 4
Riff 2 X 4
Riff 5 X 1
END
 
 -------------------------

Corrections (20/01/2010):
 
 -------------------------

* Changed the tuning to standard 5-string.

Important: The song above is NOT stored on the Chordie server. The original song is hosted at www.azchords.com. Chordie works as a search engine and provides on-the-fly formatting. Chordie does not index songs against artists'/composers' will. To remove this song please click here.

Text color:
Chord color:
Chord grids: 
Font size:    
Page size: 

A B D E G
Rate #2 of 3 versions

Login - add to songbook

SHARE PAGE  



You need to log in to post comments