Guitar Tabs, Chords and Lyrics
Major upgrade!! After one year development the new version of Chordie is now online! Please give feedback.


No Ordinary Love   M.Y.M.P.

 
 e|--5----5------|--5----------|-----|
 B|-----3-----3--|-------3--t--|--3--|
 G|--------------|----------a--|--4--|
 D|--0------0----|--4--4----p--|-----|
 A|--------------|-------------|-----|
 E|--------------|-------------|--3--|

 


 


 verse:


 

 
 e|-----------0-----------------|--------------0-----------|
 B|-------3----------3----------|-----------3-------3------|
 G|-----2----------------2------|--------2-------------2---|
 D|--0-----------0--------------|-----4-----------4--------|
 A|-----------------------------|--------------------------|
 E|-----------------------------|--------------------------|

 


 This could have been just another


 


 

 
 e|---------2-------0----------------------------|
 B|-------3------3-------------------------------|
 G|-----4-----4----------------------------------|
 D|---5------------------------------------------|
 A|----------------------------------------------|
 E|----------------------------------------------|

 


 day But instead we're standing here


 


 

 
 e|-----------0-----------------|--------------0-----------|
 B|-------3----------3----------|-----------3-------3------|
 G|-----2----------------2------|--------2-------------2---|
 D|--0-----------0--------------|-----4-----------4--------|
 A|-----------------------------|--------------------------|
 E|-----------------------------|--------------------------|
 No need for w---o----r---d--s,it's all been
 e|---------2-------0----------------------------|
 B|-------3------3-------------------------------|
 G|-----4----------------------------------------|
 D|---5------------------------------------------|
 A|----------------------------------------------|
 E|----------------------------------------------| 

 


 said In the way you hold me near


 


 refrain:


 


 

 
 e|--------2------*-----------------2----|
 B|------2---2----*------------3-------3-|
 G|----3------3---*---------4------------|
 D|---------------*------4---------------|
 A|--1------------*--2------------2------|
 E|---------------*----------------------|

 


 I was alone on this journey


 


 

 
 e|-----------3------*---------0--|
 B|--------3-------3-*--3---------|
 G|-----0------------*------------|
 D|------------------*------------|
 A|------------------*------------|
 E|--3----------3----*--2---------|

 


 You came along to comfort me


 


 

 
 e|----------0-----------------0--*--------------------------------|
 B|--------3---3-----------3------*---------3----------3-------3---|
 G|------0-------0-------0--------*------2----2------------2-------|
 D|----2-----------2---2----------*---2------------------2---------|
 A|-------------------------------*-0--------------0---0-----0-----|
 E|--0---------------0-------0----*--------------------------------|

 


 Everything i want in life is right here


 


 chorus:


 


 

 
 e|---------------0------|------------------|
 B|----------3-----------|--3---------3-----|
 G|------2---------------|-------2----------|
 D|-0--------------------|-----0------------|
 A|----------------------|------------------|
 E|----------------------|--2-------2-------|

 


 this is not your ordinary


 


 

 
 e|--------------------------0--------------|
 B|------3-------2---------2------3---------|
 G|----0---3---2---2-----3----------2-------|
 D|--------------------0--------0-----------|
 A|----------0------------------------------|
 E|--3--------------------------------------| 

 


 No ordinary love I was


 


 

 
 e|------------------------------2--|
 B|------3-------2-----------3------|
 G|----0--3----2-----------4--------|
 D|----------------------4----------|
 A|----------0-----(0)-2-------2----|
 E|--3------------------------------|

 


 not prepared enough


 


 

 
 e|-----------0-|---------------|
 B|-3-----------|-3-------3-----|
 G|----0--------|---2-----------|
 D|-------------|---------------|
 A|-------------|-0-----0-------|
 E|-3-----3-----|---------------|

 


 To fall so deep in love


 


 

 
 e|------------0-----|-----------0-----|
 B|---------3------3-|-------3---------|
 G|-----2------------|-----2-----------|
 D|-0------------0---|---0-------------|
 A|------------------|-----------------|
 E|------------------|-2-------2-------|

 


 This is not your ordinary


 


 

 
 e|--------------------------0--------------|
 B|------3-------2---------2------3---------|
 G|----0---3---2---2-----3----------2-------|
 D|--------------------0--------0-----------|
 A|----------0------------------------------|
 E|--3--------------------------------------| 

 


 No ordinary love


 


 [-]  

 
 e|-----------------------|--------------0---|
 B|-------3---------------|----------2-----2-|
 G|-----0-----0--t--------|-------3----------|
 D|---0----------a--------|-----0-------0----|
 A|--------------p--------|------------------|
 E|-3-------3-------------|------------------|

 


 You were the 1st to touch my heart


 


 


 

 
 e|------------0--------|------------------|
 B|--------3------------|--3------3--------|
 G|------2--------------|------2-----------|
 D|----0----------------|----2-------------|
 A|---------------------|--0---------------|
 E|--4-------4----------|------------------|

 


 Made evrythng ryt again W/ ur extraordinary love


 


 Intro 2:


 


 h hammer


 / slide up


 \ slide down


 


 

 
 e|--5----5------|--5----------|--------------------|
 B|-----3-----3--|-------3--t--|--3-----------------|
 G|--------------|----------a--|--4-----------------|
 D|--0------0----|--4--4----p--|--------------------|
 A|--------------|-------------|--------------------|
 E|--------------|-------------|--3----0h3/7\5------|

 


 


 Verse 2:


 


 

 
 e|-----------0----------------|
 B|-------3--------------------|
 G|-----2----------------------|
 D|--0-------------------------|
 A|----------------------------|
 E|----------------------------|

 


 I get so weak When you look at me


 


 


 

 
 e|---------2-------0----------------------------|
 B|-------3------3-------------------------------|
 G|-----4-----4----------------------------------|
 D|---5------------------------------------------|
 A|----------------------------------------------|
 E|----------------------------------------------|

 


 I get lost inside your eyes


 


 

 
 e|-----------0----------------|
 B|-------3--------------------|
 G|-----2----------------------|
 D|--0-------------------------|
 A|----------------------------|
 E|----------------------------|

 


 Sometimes the magic is hard to believe


 


 

 
 e|---------2-------0----------------------------|
 B|-------3------3-------------------------------|
 G|-----4-----4----------------------------------|
 D|---5------------------------------------------|
 A|----------------------------------------------|
 E|----------------------------------------------|

 


 But you're here before my weary eyes


 


 refrain:


 


 

 
 e|--------2------*-----------------2----|
 B|------2---2----*------------3-------3-|
 G|----3------3---*---------4------------|
 D|---------------*------4---------------|
 A|--1------------*--2------------2------|
 E|---------------*----------------------|

 


 You brought joy to my world


 


 

 
 e|-----------3------*---------0--|
 B|--------3-------3-*--3---------|
 G|-----0------------*------------|
 D|------------------*------------|
 A|------------------*------------|
 E|--3----------3----*--2---------|

 


 Set me so free


 


 

 
 e|----------0-----------------0--*--------------------------------|
 B|--------3---3-----------3------*---------3----------3-------3---|
 G|------0-------0-------0--------*------2----2------------2-------|
 D|----2-----------2---2----------*---2------------------2---------|
 A|-------------------------------*-0--------------0---0-----0-----|
 E|--0---------------0-------0----*--------------------------------|

 


 I want you to understand You are every breath that i breathe


 


 chorus:


 


 

 
 e|---------------0------|------------------|
 B|----------3-----------|--3---------3-----|
 G|------2---------------|-------2----------|
 D|-0--------------------|-----0------------|
 A|----------------------|------------------|
 E|----------------------|--2-------2-------|

 


 this is not your ordinary


 


 

 
 e|--------------------------0--------------|
 B|------3-------2---------2------3---------|
 G|----0---3---2---2-----3----------2-------|
 D|--------------------0--------0-----------|
 A|----------0------------------------------|
 E|--3--------------------------------------| 

 


 No ordinary love I was


 


 

 
 e|------------------------------2--|
 B|------3-------2-----------3------|
 G|----0--3----2-----------4--------|
 D|----------------------4----------|
 A|----------0-----(0)-2-------2----|
 E|--3------------------------------|

 


 not prepared enough


 


 

 
 e|-----------0-|---------------|
 B|-3-----------|-3-------3-----|
 G|----0--------|---2-----------|
 D|-------------|---------------|
 A|-------------|-0-----0-------|
 E|-3-----3-----|---------------|

 


 To fall so deep in love


 


 

 
 e|------------0-----|-----------0-----|
 B|---------3------3-|-------3---------|
 G|-----2------------|-----2-----------|
 D|-0------------0---|---0-------------|
 A|------------------|-----------------|
 E|------------------|-2-------2-------|

 


 This is not your ordinary


 


 

 
 e|--------------------------0--------------|
 B|------3-------2---------2------3---------|
 G|----0---3---2---2-----3----------2-------|
 D|--------------------0--------0-----------|
 A|----------0------------------------------|
 E|--3--------------------------------------| 

 


 No ordinary love


 


 [-]  

 
 e|-----------------------|--------------0---|
 B|-------3---------------|----------2-----2-|
 G|-----0-----0--t--------|-------3----------|
 D|---0----------a--------|-----0-------0----|
 A|--------------p--------|------------------|
 E|-3-------3-------------|------------------|

 


 You were the 1st to touch my heart


 


 


 

 
 e|------------0--------|------------------|
 B|--------3------------|--3------3--------|
 G|------2--------------|------2-----------|
 D|----0----------------|----2-------------|
 A|---------------------|--0---------------|
 E|--4-------4----------|------------------|

 


 Made evrythng ryt again W/ ur extraordinary love


 


 


 bridge:


 


 

 
 e|------------3---|------------3---|--------0-----|--------0------|
 B|--------3-----3-|--------3-----3-|------3-----3-|------3-----3--|
 G|------0---------|------0---------|----2---------|----2----------|
 D|----2-----------|----2-----------|--0-----------|--0------------|
 A|--3-------3-----|--3-------3-----|--------------|---------------|
 E|----------------|----------------|--------------|---------------|

 


 From the very first time that we kissed


 I knew that i just couldn't let you go at all


 


 

 
 e|------------3---|------------3---|--------0-----|--------0------|
 B|--------3-----3-|--------3-----3-|------3-----3-|------3-----3--|
 G|------0---------|------0---------|----2---------|----2----------|
 D|----2-----------|----2-----------|--0-----------|--0------------|
 A|--3-------3-----|--3-------3-----|--------------|---------------|
 E|----------------|----------------|--------------|---------------|
 e|------------0-|-------0------|
 B|--------3-----|-----3-----3--|
 G|------0-------|---2----------|
 D|----2---------|-0-------0----|
 A|--3-------3---|--------------|
 E|--------------|--------------|

 


 Can't we make this


 


 

 
 e|------------0-|-------0------|
 B|--------3-----|-----3-----3--|
 G|------0-------|---2----------|
 D|----2---------|-0-------0----|
 A|--3-------3---|--------------|
 E|--------------|--------------|

 


 last forever


 


 

 
 e|------------0-|-------0------|
 B|--------3-----|-----3-----3--|
 G|------0-------|---2----------|
 D|----2---------|-0-------0----|
 A|--3-------3---|--------------|
 E|--------------|--------------|

 


 This can't be a dream


 


 

 
 e|--------------------------0-------------------------|
 B|-------3----------3---------------------------------|
 G|-----2---------2------------------------------------|
 D|---2---------2--------------------------------------|
 A|--0--------0----------0-----------------------------|
 E|----------------------------------------------------|

 


 coz it feels so0000


 


 chorus:


 


 

 
 e|---------------0------|------------------|
 B|----------3-----------|------------3-----|
 G|------2---------------|-------2----------|
 D|-0--------------------|-----0------------|
 A|----------------------|------------------|
 E|----------------------|--2-------2-------|

 


 soooooooooooooooooooooooo


 


 

 
 e|--------------------------0--------------|
 B|------3-------2---------2------3---------|
 G|----0---3---2---2-----3----------2-------|
 D|--------------------0--------0-----------|
 A|----------0------------------------------|
 E|--3--------------------------------------| 

 


 so good to me


 


 

 
 e|------------------------------2--|
 B|------3-------2-----------3------|
 G|----0--3----2-----------4--------|
 D|----------------------4----------|
 A|----------0-----(0)-2-------2----|
 E|--3------------------------------|
 e|-----------0-|---------------|
 B|-3-----------|-3-------3-----|
 G|----0--------|---2-----------|
 D|-------------|---------------|
 A|-------------|-0-----0-------|
 E|-3-----3-----|---------------|

 


 To fall so deep in love


 


 

 
 e|------------0-----|-----------0-----|
 B|---------3------3-|-------3---------|
 G|-----2------------|-----2-----------|
 D|-0------------0---|---0-------------|
 A|------------------|-----------------|
 E|------------------|-2-------2-------|

 


 coz This is not your ordinary


 


 

 
 e|--------------------------0--------------|
 B|------3-------2---------2------3---------|
 G|----0---3---2---2-----3----------2-------|
 D|--------------------0--------0-----------|
 A|----------0------------------------------|
 E|--3--------------------------------------| 

 


 No ordinary love


 


 [-]  

 
 e|-----------------------|--------------0---|
 B|-------3---------------|----------2-----2-|
 G|-----0-----0--t--------|-------3----------|
 D|---0----------a--------|-----0-------0----|
 A|--------------p--------|------------------|
 E|-3-------3-------------|------------------|

 


 You were the 1st to touch my heart


 


 


 

 
 e|------------0--------|------------------|
 B|--------3------------|--3------3--------|
 G|------2--------------|------2-----------|
 D|----0----------------|----2-------------|
 A|---------------------|--0---------------|
 E|--4-------4----------|------------------|

 


 Made evrythng ryt again W/ ur extraordinary love


 


 chorus:


 


 

 
 e|---------------0------|------------------|
 B|----------3-----------|--3---------3-----|
 G|------2---------------|-------2----------|
 D|-0--------------------|-----0------------|
 A|----------------------|------------------|
 E|----------------------|--2-------2-------|
 e|--------------------------0--------------|
 B|------3-------2---------2------3---------|
 G|----0---3---2---2-----3----------2-------|
 D|--------------------0--------0-----------|
 A|----------0------------------------------|
 E|--3--------------------------------------| 

 


 your extraordinary love I was


 


 

 
 e|------------------------------2--|
 B|------3-------2-----------3------|
 G|----0--3----2-----------4--------|
 D|----------------------4----------|
 A|----------0-----(0)-2-------2----|
 E|--3------------------------------|

 


 not prepared enough


 


 

 
 e|-----------0-|---------------|
 B|-3-----------|-3-------3-----|
 G|----0--------|---2-----------|
 D|-------------|---------------|
 A|-------------|-0-----0-------|
 E|-3-----3-----|---------------|

 


 To fall so deep in love


 


 

 
 e|------------0-----|-----------0-----|
 B|---------3------3-|-------3---------|
 G|-----2------------|-----2-----------|
 D|-0------------0---|---0-------------|
 A|------------------|-----------------|
 E|------------------|-2-------2-------|

 


 This is not your ordinary


 


 

 
 e|--------------------------0--------------|
 B|------3-------2---------2------3---------|
 G|----0---3---2---2-----3----------2-------|
 D|--------------------0--------0-----------|
 A|----------0------------------------------|
 E|--3--------------------------------------| 

 


 No ordinary love


 


 [-]  

 
 e|-----------------------|--------------0---|
 B|-------3---------------|----------2-----2-|
 G|-----0-----0--t--------|-------3----------|
 D|---0----------a--------|-----0-------0----|
 A|--------------p--------|------------------|
 E|-3-------3-------------|------------------|

 


 You were the 1st to touch my heart


 


 


 

 
 e|------------0--------|------------------|
 B|--------3------------|--3------3--------|
 G|------2--------------|------2-----------|
 D|----0----------------|----2-------------|
 A|---------------------|--0---------------|
 E|--4-------4----------|------------------|

 


 Made evrythng ryt again W/ ur extraordinary love


 


 outro:


 


 

 
 e|--5----5------|--5----------|----------------5----|
 B|-----3-----3--|-------3--t--|--3-------------5----|
 G|--------------|----------a--|--4-------------7----|
 D|--0------0----|--4--4----p--|----------------7----|
 A|--------------|-------------|----------------5----|
 E|--------------|-------------|--3----0h3/7\5--X----|


Important: The song above is NOT stored on the Chordie server. The original song is hosted at www.azchords.com. Chordie works as a search engine and provides on-the-fly formatting. Chordie does not index songs against artists'/composers' will. To remove this song please click here.

This song is displayed as text-only. Transposing and tuning is only available for chordpro-songs.
Rate #7 of 7 versions

Login - add to songbook

SHARE PAGE  



You need to log in to post comments