Guitar Tabs, Chords and Lyrics
Server problems seems to be fixed. Chordie has been experiencing problems with songs disappearing. These issues now seems to be fixed, but still verifying the fix. If you find anything strange, please email admin@chordie.com.


Waiting in Vain  M.Y.M.P.

Waiting in Vain
MYMP
Notes: This was a nice song para sa mga naghihintay ng minamahal nila.. wala lng aSteeg 2.
Chords used: Plucking here
[C#]  
 
 E|--------4-----------4-----------|
 B|---4------4-----4-----6---------|
 G|------------6-------------------|
 D|-----6------------6-------------|
 A|-4------------4-----------------|
 E|--------------------------------|

[F#M7]  
 
 E|-------1------------1----------|
 B|---2-----2-----2------2--------|
 G|-----3-----3-----3-------------|
 D|-4-----------4-----------------|
 A|-------------------------------|
 E|-------------------------------|

Intro: C#-F#M7 (2X)
[C#] [F#M7]  
[C#]My heart set my love[F#M7] through
[C#]but i know now that i wait n[F#M7]ow on the line
[C#]but the waiting feelin[F#M7]g Stop
[C#]So dont treat me like a[F#M7] pop it on the street
[C#]coz i know how to do my[F#M7] fate
[C#]Dont talk to me as if u[F#M7] think im dumb
[C#]I wanna know when u gon[F#M7]na cme
Refrain:
Yeah i see
[C#]i dont wanna wait in vain 4 ur [F#M7]love(5x)
Chorus:
Coz, su[F#]mmer is he[G#]re im st[Fm7]ill wa[D#m7]iting vain
Win[F#]ter is he[G#]re im stil[Fm7]l waiting va[D#m7]in
BAss chords:
 
 E|--------------------------------------------------------|
 B|--------------------------------------------------------|
 G|--------------------------------------------------------|
 D|----------------6---------------------------------------|
 A|-4--4-4h6-4--4------------------------------------------|
 E|------------------2--2-2h4-2--2--2----------------------|

Verse 2:( guitar + Bass)Do verse1 chords
Like i said, its been freeze some knockin on ur door and still get some knock more
ooh boy ooh boy is it crazy look i wanna know now
4 i do knock some more
yah i see in life i know theres much agree
but ur lov is my relief
tears in my eyes burn while im waiting 4 my turn
Bridge:(Do verse chords)
No one, No one i dont wanna wait in vain (3x)
its ur love that im waitin on
its my love that ur running from

Important: The song above is NOT stored on the Chordie server. The original song is hosted at www.azchords.com. Chordie works as a search engine and provides on-the-fly formatting. Chordie does not index songs against artists'/composers' will. To remove this song please click here.

Text color:
Chord color:
Chord grids: 
Font size:    
Page size: 

C# D#m7 F# F#m7 Fm7 G#
Rate #1 of 3 versions

Login - add to songbook

SHARE PAGE  




You need to log in to post comments