Guitar Tabs, Chords and Lyrics
Major upgrade!! After one year development the new version of Chordie is now online! Please give feedback.


Bob  NOFX

Bob by NOFX off White Trash, 2 heebs and a been
I don't know if the key is correct, because my strings are quite old
and may not be in tune so move this up and down the neck until it sounds right.
Chords used :
[C5] [F5] [G5] [Bb5] [E5ii] [F5ii] 
 
 ----- ----- ----- ----- ----- -----
 ----- ----- ----- ----- ----- -----
 --5-- ----- ----- --3-- --9-- -10--
 --5-- --3-- --5-- --3-- --9-- -10--
 --3-- --3-- --5-- --1-- --7-- --8--
 ----- --1-- --3-- ----- ----- -----

I know you've probably heard this a million times before, but find the
rythem yourself.
[C5]Spent 15 years getting loaded
[F5]15 years till his liver exploded,
[C5]Now what's Bob gonna do,
[F5]Now that he can't drink?
The doctor said,
[C5]whatcha been thinkin' about?
[F5]Bob said thats the point,
[C5]Can't think about nothing, i gotta do someth[F5]ing now
Oi, Oi, Oi
[C5]Now's the time he's gonna change his ways
[F5]Got a new identity
[C5]62 holed air cushioned boots
[F5]And a girl who ride a scooter to take him
Out Of town So he could get away
 
 ---------------------------------------------------------
 -5-5-----8-8-------5-5----6-6----------------------------
 -5-5-----7-7-------5-5----5-5----------------------------
 --------------------------------------------------------- } Riff 1
 ---------------------------------------------------------
 ---------------------------------------------------------

Running around, as the trucks start up you could hear the other truckers go
( riff 1)
Trumpet solo with riff 1 4x
[C5]A couple of months and he's determined to show
[F5]He'll be kicking his head at a Punk Rock show
[C5]Bob's the kinda guy he knows just what
[E5ii]Bob's the kinda guy he knows just what to[F5ii] do
When the Doctor tells him to
[C5]We'll go d[Bb5]rinking after [F5]dark
Will he [G5]ever walk the [C5]line?
All he d[Bb5]id was take[F5] a drink.
Will he [G5]ever walk the [C5]line?
[Bb5]Kissing ass and [F5]Giving heads
[G5]Red suspenders
[C5]Till one [Bb5]day he shaved his he[F5]ad
Will he [G5]ever walk the line
[C5]Will he e[Bb5]ver walk the [F5]line
Will he [G5]ever wakl the line
[C5]Will he e[Bb5]ver walk the [F5]line
Will he [G5]ever walk line
riff 1 2x
Shoobee do wop bop doobie...

Important: The song above is NOT stored on the Chordie server. The original song is hosted at www.azchords.com. Chordie works as a search engine and provides on-the-fly formatting. Chordie does not index songs against artists'/composers' will. To remove this song please click here.

Text color:
Chord color:
Chord grids: 
Font size:    
Page size: 

Bb5 C5 F5 G5
Rate #1 of 7 versions

Jango Player

Login - add to songbook

SHARE PAGE  




You need to log in to post comments