Guitar Tabs, Chords and Lyrics
Update 25:10. 13:00. Site is back up running again. Songbooks are recovered. Woring on getting search back up..


Bring Back the Sun  Our Lady Peace

The other tabs were good but weren't quite sounding ritgh to me
"Bring Back The Sun"
Intro & Verse:
[F#m] [E]  
 
 e|-----------------2--2--0------|
 B|-----------------2--2--0------|
 G|-----------------2--2--1------|
 D|-------0h4-------4--4--2------|
 A|-0h4-------------4--4--2------|
 E|---------------2-2--2--0------|

Verse 1:
[F#m]A little white h[E]ouse
[F#m]It??s everything we've dreamed[E] about
[F#m]I wanted you to k[E]now
[F#m]I??m hanging up my[E] ego
[F#m]We shouldn't have to f[E]ight
[F#m]Or worry about the bills to[E]night
[F#m]I wanted you to k[E]now
[F#m]I want to be your sh[E]adow
Chorus:
The mystery's g[A]one
So bring back the [E]sun
We??ll bury thi[F#m]s hate
And build it with l[E]ove
Verse 2:
[F#m]Living by the h[E]our
[F#m]This grass wasn't greener I[E] found
[F#m]I wanted you to k[E]now
[F#m]Well I dug you up a rai[E]nbow
Chorus:
The mystery's g[A]one
So bring back the [E]sun
We??ll bury thi[F#m]s hate
And build it with l[E]ove
Solo:
 
 e|-----------------------------------------------------------------------|
 B|-----------------------------------7---7---7-9s7-5-5-5s3-3s2-2h3-3-2---|
 G|-1-s-6-6-6-6h7-7r6-6s4-4---4---4---------------------------------------|
 D|-----------------------------------------------------------------------|
 A|-----------------------------------------------------------------------|
 E|-----------------------------------------------------------------------|
 e|-----------------------------------------5-----5-----------------------|
 B|-----------------------------------------------------------------------|
 G|-4-2-2--2-2s1-1-1h2-2-2-2-1-1----------6---6-6---6-6-------------------|
 D|-------------------------------2s4s2-----------------------------------|
 A|-----------------------------------------------------------------------|
 E|-----------------------------------------------------------------------|
 e|-5-5-5b7-5-4-4-5-4-4-------------------------------------------------------------|
 B|--------------------5b7-5b7-5b7-5b7----------------------------------------------|
 G|------------------------------------6-6-6h7-7-6-4-4-2-2-2s1-1-1-1-2-2-1----------|
 D|--------------------------------------------------------------------------2s4s2--|
 A|---------------------------------------------------------------------------------|
 E|---------------------------------------------------------------------------------|

Bridge:
And [A]I know, I know I failed you
And [E]I hope, I hope we get through
[F#m]Sunny days agai[E]n
And[A] I know, I know I failed you
And [E]I hope, I hope we get through
[F#m]Sunny days agai[E]n
Chorus:
The mystery's g[A]one
So bring back the [E]sun
We??ll bury thi[F#m]s hate
And build it with l[E]ove
[A] [E] [F#m] [E] [A] 
M[E]ystery's gon[F#m]e, My[E]stery's gone, Myster's gone, Mystery's gone..
The mystery's g[A]one
So bring back the [E]sun
We??ll bury thi[F#m]s hate
And build it with l[E]ove
[F#m]A little white ho[E]use...

Important: The song above is NOT stored on the Chordie server. The original song is hosted at www.azchords.com. Chordie works as a search engine and provides on-the-fly formatting. Chordie does not index songs against artists'/composers' will. To remove this song please click here.

Text color:
Chord color:
Chord grids: 
Font size:    
Page size: 

A E F#m
Rate #1 of 3 versions

Login - add to songbook

SHARE PAGE  



You need to log in to post comments