Guitar Tabs, Chords and Lyrics
Update 25:10. 13:00. Site is back up running again. Songbooks are recovered. Woring on getting search back up..


Bagsakan  Parokya ni Edgar

 
 -----------------------------------------------------------------------

Bagsakan ‚?? Parokya ni Edgar
 
 -----------------------------------------------------------------------

Tuning: standard
I dedicate dis tab to all kolokoys of Sta. Filomena High School! Proud
ako sa lahat ng students ng Sta. Fe. ng Iligan!
Intro:
[G-1]  
 
 e|--------------------------------------------------------------------|
 B|--------------------------------------------------------------------|
 G|--------------------------------------------------------------------|
 D|-----7--7-----------------------7--7--------------------------------|
 A|-----5--5-----------------------5--5--------------------------------|
 E|--------------------------------------------------------------------|

[G-2]  
 
 e|--------------------------------------------------------------------|
 B|--------------------------------------------------------------------|
 G|--------------------------------------------------------------------|
 D|-----0--0--2--0--4--3--2--------0--0--2--0--------------------------|
 A|--------------------------------------------2-2---------------------|
 E|--------------------------------------------------------------------|

Verse:
[G-1]  
 
 e|---------------------|
 B|---------------------|
 G|---------------------|
 D|-----7--7------------|
 A|-----5--5------------|
 E|---------------------|

[G-2]  
 
 e|--------------------------------------------------------------------|
 B|--------------------------------------------------------------------|
 G|--------------------------------------------------------------------|
 D|-----0--0--2--0--4--3--2‚??--(3x)------0--0--2‚??-0--4--5--7------------|
 A|--------------------------------------------------------------------|
 E|--------------------------------------------------------------------|

[G-1]  
 
 e|---------------------|
 B|---------------------|
 G|---------------------|
 D|-----7--7------------|
 A|-----5--5------------|
 E|---------------------|

[G-2]  
 
 e|--------------------------------------------------------------------|
 B|--------------------------------------------------------------------|
 G|-----0--0--2--0--4--3--2‚??--(3x)------0--0--2‚??-0--4--5--7------------|
 D|--------------------------------------------------------------------|
 A|--------------------------------------------------------------------|
 E|--------------------------------------------------------------------|

Tapos balik na naman sa yung unang tab ng verse‚?¶‚?¶‚?¶
E2 yung malapit ng matapos yung rap!!!!
G-1 & G-2
 
 e|----------------------------------|
 B|----------------------------------|
 G|----------------------------------|
 D|-----7-(4x)-----7-(12x)-----------|
 A|-----5-(4x)-----5-(12x)-----------|
 E|----------------------------------|

Dyan sa 12x mabilisan na ang pag strum‚?¶
Salamat sa lahat ng suporta hope you will rate dis tab.....
ah e2 pala ung pangalan ng bandmates ko:
Vocals: Denmark (Bongot)
Rythm Guitar: Alger (Bab's)
Bass: Giovanni (Lolo)
Drums: Namit!!! yeah
& of course me for lead guitars!!!!!!
Thx talaga sa lahat ng nag rate....... mabuhay ang Pilipinas......

Important: The song above is NOT stored on the Chordie server. The original song is hosted at www.azchords.com. Chordie works as a search engine and provides on-the-fly formatting. Chordie does not index songs against artists'/composers' will. To remove this song please click here.

Text color:
Chord color:
Chord grids: 
Font size:    
Page size: 

G-2
Rate #1 of 5 versions

Jango Player

Login - add to songbook

SHARE PAGE  




You need to log in to post comments