Guitar Tabs, Chords and Lyrics
Update 25:10. 13:00. Site is back up running again. Songbooks are recovered. Woring on getting search back up..


Choco Latte  Parokya ni Edgar

Band/Artist: Parokya Ni Edgar
 
 --------------------------------------------------------------------------------------------

INTRO :
guitar 1 : A-Bm(4x) Major Chords(clean)
guitar 2 : lead(clean)
[A] [Bm] [A] [Bm]  
 
 |-----------|---------------------------------------------------1212-10-9-9-9h10-9-----|
 |-----10-12-|-12s14-14-12-12h14-12-10--10-10h12-10--10-12-12s14--------------------10~-|
 |--/11------|------------------------11------------------------------------------------|
 |-----------|--------------------------------------------------------------------------|
 |-----------|--------------------------------------------------------------------------|
 |-----------|--------------------------------------------------------------------------|

[A] [Bm] [A] [Bm]  
 
 |---------------------------------------------------------------9--12~~-|
 |----10-12--12s14-14-12-12h14-12-10--10-10h12-10--------------10-10-----|
 |--11------------------------------11-----------11-9---------9----------|
 |----------------------------------------------------11~--11------------|
 |-----------------------------------------------------------------------|
 |-----------------------------------------------------------------------|
 ---------------------------------------------------------------------------------------------

Verse 1 : guitar 1 & 2: major chords (clean)
Guitar 1 & 2 Chords:
[A] [Bm] [C#m] [E]  
 
 e|-0-|-2-|-4-|-0-|
 b|-2-|-3-|-5-|-0-|
 g|-2-|-4-|-6-|-1-|
 d|-2-|-4-|-6-|-2-|
 a|-0-|-2-|-4-|-2-|

e|(0)|(x)|(x)|-0-|
[A]Di ba't sinabi mo s[Bm]a??kin dati
Na mah[A]irap kumain ng [Bm]tsokolateng
Na[A]tunaw at parang wal[Bm]a nang korte
Ka[A]diri nang kainin, mukh[Bm]a nang ta-
 
 -----------------------------------------------------------------------------------------------

Refrain 1: guitar 1 & 2: major chords (clean)
E[C#m]wan ko ba kung bakit ma[Bm]hirap ibalik
Sa or[C#m]iginal na hugis pag
Bm E(break)
Nalusaw na sa init
 
 -----------------------------------------------------------------------------------------------

Chorus 1: guitar 1: major chords (clean) guitar 2: power chords (distortion)
guitar 2 chords :
[A] [Bm] [C#m]  
 
 |---|---|----|
 |---|---|----|
 |-x-|-x-|-x--|
 |-7-|-9-|-11-|
 |-7-|-9-|-11-|
 |-5-|-7-|-9--|

Parang tiw[A]ala pag na[Bm]sira na
Ma[C#m]hirap nang ayu[Bm]sin pa
Di k[A]ayang ipagdi[Bm]kit
C#m Bm - A(break)
Ang tiwala pag napunit
 
 ------------------------------------------------------------------------------------------------

Verse 2: guitar 1 & 2: major chords (clean)
Parang nangyari kailan lang...
 
 |----------------------------------9--12~~-|
 |--------10??-12-10??-12-10--------10-10-----|
 |----9-11--11-----11-----11~----9----------|
 |--11-------------------------11-----------|
 |------------------------------------------|
 |------------------------------------------|

Meron akong nak[A]itang nakatagong reg[Bm]alo sa likod ng ko[A]tse mo[Bm]
Hugis puso na kah[A]on, at may[Bm] red na ribbon
A(break) Bm(break)
Mamahaling toblerone at,
Nu[A]ng aking ting[Bm]nan, par[A]a sa iyo mula[Bm] kay Christian
Ag[A]ad kong binuk[Bm]san, tsokol[A]ate ang la[Bm]man
At d[A]i ko malaman kung ba't [Bm]kailangang
It[A]ago sa akin ang ka[Bm]totohanan
Ang d[A]ami-dami mo pal[Bm]ang tsokolate,
[A]Di ka man lamang nag[Bm]sasalita
 
 --------------------------------------------------------------------------------------------------

Refrain 1: guitar 1 & 2: major chords (clean)
E[C#m]wan ko ba kung bakit hin[Bm]di ko napigilan
Ang re[C#m]galo mo'y naubos ko
Bm E(break)
Nang di ko nalalalaman
 
 --------------------------------------------------------------------------------------------------

Chorus 2: guitar 1: major chords (clean) guitar 2: power chords (distortion)
Parang ti[A]wala pa[Bm]g naubos na
Bigl[C#m]a-biglaang[Bm] talaga
Mah[A]irap nang ma[Bm]kita
Kapag m[C#m]insa'y naw[Bm]ala
 
 ---------------------------------------------------------------------------------------------------

Bridge: major chords (clean) guitar 2: power chords (distortion)
At k[C#m]ahit na pil[Bm]itin, di mo [C#m]na mapapali[Bm]tan,
Ka[C#m]hit hanap-han[Bm]apin, di [C#m]mo na mabab[Bm]alikan,
Ka[C#m]hit sabihin [Bm]natin na i[C#m]ka'y mapagbi[Bm]gyan,
A(break)
wag na lang...
guitar 2:
e|--5~--|
b|--5~--|
g|--6~--|
d|--7~--|
a|--7~--|
e|--5~--|
 
 ---------------------------------------------------------------------------------------------------

Lead-in
Guitar 1: A-Bm (major chords) 4x
Guitar 2: lead(clean)
 
 |-1717-14--------------------------------------------1212-10-9-9-9h10-9-10s12~-10-12-12s14~-|
 |---------1717-1414-12-10---10-10h12-10~-10-12-12s14----------------------------------------|
 |-------------------------11----------------------------------------------------------------|
 |-------------------------------------------------------------------------------------------|
 |-------------------------------------------------------------------------------------------|
 |-------------------------------------------------------------------------------------------|
 |-12h14p12-17p12-|-12h14p12-17p12-|-12h14p12-17p12-|-12h14p12-17p12--1717-14-----------------------|
 |----------------|----------------|----------------|------------------------1717-1414-12-10--10----|
 |----------------|----------------|----------------|---------------------------------------11--11~-|
 |----------------|----------------|----------------|-----------------------------------------------|
 |----------------|----------------|----------------|-----------------------------------------------|
 |----------------|----------------|----------------|-----------------------------------------------|
 ---------------------------------------------------------------------------------------------------

Refrain 1: guitar 1: major chords (clean)
guitar 2: lead (clean)
E[C#m]wan ko ba kung bakit
 
 |--------------------------|
 |----------------------10~-|
 |------/4~----/9~--9h11----|
 |--------------------------|
 |--/4~---------------------|
 |--------------------------|

Mah[Bm]irap tanggalin ang t[C#m]sokolate
 
 |--------------------------------|
 |--------------------------------|
 |----------9??9h11~--9h11p9??7??6~--|
 |-----7h9------------------------|
 |--9~----------------------------|
 |--------------------------------|

pag natunaw at
 
 |----------------------------|
 |-----------------------10~--|
 |------/4~----/9~--9h11------|
 |----------------------------|
 |----------------------------|
 |----------------------------|

Bm E(break)
kumapit na sa ngipin...
 
 |-------------------------|
 |-------------------------|
 |-----------------9x9x9x--|
 |----7??9p7--------9x9x9x--|
 |--9--------9-7---7x7x7x--|
 |-----------------xxxxxx--|

|palmmute|
 
 --------------------------------------------------------------------------------------------------

Chorus 2: guitar 1: major chords (clean) guitar 2: power chords (distortion)
Parang ti[A]wala pag na[Bm]mantsahan na
Ma[C#m]hirap nang lin[Bm]isin pa
Di [A]kayang burah[Bm]in
Kahit [C#m]na anong gawi[Bm]n...
 
 ---------------------------------------------------------------------------------------------------

outro1: guitar 1: major chords (distortion)
guitar 2: lead (clean)
parang [A]tiwala ... [Bm] parang t[A]iwala ...[Bm]
 
 |----------------------------||------9--12-10-9-9h10-9-----|
 |-------10--12-10--12-10-----||----10-10---------------10~-|
 |---9-11--11-----11-----11~--||---9------------------------|
 |-11-------------------------||-11-------------------------|
 |----------------------------||----------------------------|
 |----------------------------||----------------------------|

parang [A]tiwala ... [Bm] parang t[A]iwala ...[Bm]
 
 |----------------------------||------9--12-10-9-9h10-9~~-|
 |-------10--12-10--12-10-----||----10-10-----------------|
 |---9-11--11-----11-----11~--||---9----------------------|
 |-11-------------------------||-11-----------------------|
 |----------------------------||--------------------------|
 |----------------------------||--------------------------|

parang ti[A]wala ... [Bm] parang tiw[A]ala ...[Bm]
 
 |-------------------------------------------------------------1212-10-9-9-9h10-9-9s10s12~-|
 |-----10-12-12s14-14-12-12h14-12-10--10-10h12-10--10-12-12s14-----------------------------|
 |--/11-----------------------------11-----------------------------------------------------|
 |-----------------------------------------------------------------------------------------|
 |-----------------------------------------------------------------------------------------|
 |-----------------------------------------------------------------------------------------|

A Bm A Bm(break) A(guitar2)
 
 |------17-19-19s21-21-19-19h21p19-17s9~------------9--12~~~--------|-5~-|
 |--//19--------------------------------10-9------10-10-------------|-5~-|
 |------------------------------------------9~---9------------------|-6~-|
 |---------------------------------------------11-------------------|-7~-|
 |------------------------------------------------------------------|-7~-|
 |------------------------------------------------------------------|-5~-|
 -------------------------------------------------------------------------------------------------

special thnx 2:
> SenthyX Zone
> Senthyx(band)
-joe
-randz
-andz
-pau
hi 2:
> IV- St. Agatha(class of s/y 09-10)
- mag-ugma na kita intiro ... last year ta na adi sa SBS !!!

Important: The song above is NOT stored on the Chordie server. The original song is hosted at www.azchords.com. Chordie works as a search engine and provides on-the-fly formatting. Chordie does not index songs against artists'/composers' will. To remove this song please click here.

Text color:
Chord color:
Chord grids: 
Font size:    
Page size: 

A Bm C#m E
Rate #2 of 5 versions

Jango Player

Login - add to songbook

SHARE PAGE  



You need to log in to post comments