Guitar Tabs, Chords and Lyrics
Update 25:10. 13:00. Site is back up running again. Songbooks are recovered. Woring on getting search back up..


Maniwala Ka Sana  Parokya ni Edgar

Hi dis is my 2nd tab so ......... enjoy !!
 
 --------------------------maniwala ka sana----------------------------

- Buhi, Camarines Sur
legend:
h ?? hammer
b ?? bend
~ - let ring
\ - slide down
/ - slide up
intro:
guitar1:
[C] [Am] [F] [G]  
 
 |-0-0-0-0-|-0-0-0-0-|-1-1-0-1-|-3-3-0-0-|
 |-1-1-0-1-|-1-1-0-1-|-1-1-0-1-|-0-0-3-0-|
 |-0-0-0-0-|-2-2-2-2-|-2-2-2-2-|-0-0-0-0-|
 |-2-2-2-2-|-2-2-2-2-|-3-3-3-3-|-0-0-0-0-|
 |-3-3-3-2-|-0-0-0-0-|-3-3-3-3-|-2-2-2-2-|
 |-x-x-x-x-|-x-x-x-x-|-1-1-x-1-|-3-3-3-3-|

guitar2: (lead-in)
 
 |----------------------------131313-1313--151515~--|
 |-/13-13-12-13--/13-13-12-13-----------------------|
 |--------------------------------------------------|
 |--------------------------------------------------|
 |--------------------------------------------------|
 |--------------------------------------------------|

verses:
guitar 1 & 2:
[C] [Am] [F] [G]  
 
 |-0-0-0-0-|-0-0-0-0-|-1-1-0-1-|-3-3-0-0-|
 |-1-1-0-1-|-1-1-0-1-|-1-1-0-1-|-0-0-3-0-|
 |-0-0-0-0-|-2-2-2-2-|-2-2-2-2-|-0-0-0-0-|
 |-2-2-2-2-|-2-2-2-2-|-3-3-3-3-|-0-0-0-0-|
 |-3-3-3-2-|-0-0-0-0-|-3-3-3-3-|-2-2-2-2-|
 |-x-x-x-x-|-x-x-x-x-|-1-1-x-1-|-3-3-3-3-|

refrain:
guitar 1 & 2:
[Am] [G] [F] [G]  
 
 |-00000-|-33333-|-11111-|-33333-|
 |-11111-|-33333-|-11111-|-33333-|
 |-22222-|-44444-|-22222-|-44444-|
 |-22222-|-55555-|-33333-|-55555-|
 |-00000-|-55555-|-33333-|-55555-|
 |-xxxxx-|-33333-|-11111-|-33333-|

chorus:
guitar 1 & 2:
[C] [G] [Am] [F]  
 
 |-00000-|-33333-|-00000-|-11111-|
 |-11011-|-33333-|-11011-|-11111-|
 |-00000-|-44444-|-22222-|-22222-|
 |-22222-|-55555-|-22222-|-33333-|
 |-33333-|-55555-|-00000-|-33333-|
 |-xxxxx-|-33333-|-xxxxx-|-11111-|
 solo: C-G-Am-F (2x) Am-G-F-[F](2x)

[C] [G] [Am] [F] [C] [G] [Am] [F]  
 
 |-----------------------------------------------7-8-8/10-8-7-------------------|
 |--5-5-6----------------------------------------8------------8/10-8------------|
 |--------7--------------------------------5-----7------------------10-7h9-7-5--|
 |----------7??5----------------------5-5/7--------------------------------------|
 |--------------5-5/7--7-5-7-7/8-7----------------------------------------------|
 |---------------------------------8--------------------------------------------|

[Am] [G] [F] [Am] [G] [F]  
 
 |------------------------------------------------8-7-8\7------------------10b-------------|
 |--------------------------5h6-5--5-5h6-5-8-8/10----------10??8----8-10-10b---10b-8---8~~~-|
 |----5-4-5\4-5-5/7-7-5-7-7------7------------------------------9-------------------9------|
 |--7--------------------------------------------------------------------------------------|
 |-----------------------------------------------------------------------------------------|
 |-----------------------------------------------------------------------------------------|

salamat sa .:
>III- St. Agnes (class of 2008-2009)
>SenthyX Zone

Important: The song above is NOT stored on the Chordie server. The original song is hosted at www.azchords.com. Chordie works as a search engine and provides on-the-fly formatting. Chordie does not index songs against artists'/composers' will. To remove this song please click here.

Text color:
Chord color:
Chord grids: 
Font size:    
Page size: 

Am C F G
Rate #1 of 6 versions

Login - add to songbook

SHARE PAGE  



You need to log in to post comments