Guitar Tabs, Chords and Lyrics
Update 25:10. 13:00. Site is back up running again. Songbooks are recovered. Woring on getting search back up..


Victor Could  Parokya ni Edgar

Parokya Ni Edgar
Tuning: EADGBe
I'm 99% sure of the tabs and chords here..
Intro:
[(a)]  
 
 e|------------------------------------------10-8-7/5-5/3-3--7-7h8----------|
 B|--8-10-10/12-12h13-12---8-10-10/12-8-10p8-----------------------7-7h8----|
 G|----------------------------------------------------------------------7--|
 D|-------------------------------------------------------------------------|
 A|-------------------------------------------------------------------------|
 E|-------------------------------------------------------------------------|

[(b)]  
 
 e|------------------------------------------10-8-7-7h8-5------------------------|
 B|--8-10-10/12-12h13-12---8-10-10/12-8-10p8--------------7h8-5h8---8------------|
 G|---------------------------------------------------------------7---5-4-2------|
 D|-------------------------------------------------------------------------5-4--|
 A|------------------------------------------------------------------------------|
 E|------------------------------------------------------------------------------|

Verse I:
I [G]could[D]
[C]Rush out the [Bm]door get in my ca[C]r
And [Bm]drive to yo[C-D]u
I really[G] would[D]
[C]Grab all my [Bm]change and hail a [C]cab
And [Bm]soon I‚??d be th[C-D]ere
Chorus 1:
But you won‚?[G]?t care[D]
[C]Try as I [Bm]may but I can‚??[C]t do a thing[Bm]
‚??Cause [C]I don‚??t mea[D]n a thing to you...
REPEAT INTRO(b)
Verse II:
I[G] should[D]
[C]Pick up the pho[Bm]ne, recite your nu[C]mber in my he[Bm]ad
Make s[C]ure the line ain‚??t d[D]ead
But I[G] pause[D]
[C]And think of [Bm]words that I would [C]say to you[Bm]
So you‚??[C]d love me [D]too
REPEAT CHORUS 1
Interlude:
 
 e|------------------------------------------10-8-7/5-5/3-3-----10-----------|
 B|--8-10-10/12-12h13-12---8-10-10/12-8-10p8-----------------7-8-------------|
 G|--------------------------------------------------------------------------|
 D|--------------------------------------------------------------------------|
 A|--------------------------------------------------------------------------|
 E|--------------------------------------------------------------------------|

Verse III:
I [G]wish[D]
[C]Someday you'd [Bm]realize the[C]
The way I [Bm]look into your eye[C-D]s
And really[G] think[D]
[C]Of possib[Bm]ilities and[C]
Proba[Bm]bilities that[C] maybe some[D]day...
Chorus 2:
...you would[G] care[D]
[C]I‚??d give m[Bm]y all and I woul[C]d do the thing[Bm]s
That would mean [C]everything[D] to...
Outro:
you...
 
 e|------------------------------------------10-8-7/5-5/3-3--7-7h8-------------|
 B|--8-10-10/12-12h13-12---8-10-10/12-8-10p8-----------------------7-8-10-7-8--|
 G|----------------------------------------------------------------------------|
 D|----------------------------------------------------------------------------|
 A|----------------------------------------------------------------------------|
 E|----------------------------------------------------------------------------|

yes ntapos na.
I guess that's all.
Paki rate nlang pow..
la lang..3-c!!!
thx ^^

Important: The song above is NOT stored on the Chordie server. The original song is hosted at www.azchords.com. Chordie works as a search engine and provides on-the-fly formatting. Chordie does not index songs against artists'/composers' will. To remove this song please click here.

Text color:
Chord color:
Chord grids: 
Font size:    
Page size: 

Bm C D G
Rate #1 of 3 versions

Jango Player

Login - add to songbook

SHARE PAGE  



You need to log in to post comments