Guitar Tabs, Chords and Lyrics
Update 25:10. 13:00. Site is back up running again. Songbooks are recovered. Woring on getting search back up..


Love Divine  Phil Keaggy

LOVE DIVINE
Phil Keaggy
Never knew such a l[Am]ove[D]
Could be [Gmaj7]found, it's so a[Em]mazing
I can t[Am]aste, I can feel[D]
I can[Gmaj7] see for I am facing[Dm7]
L[G]ove Di[Cmaj7]-vine, you are [Cm/A]mine
Let the [G]world[Bm/F#] go walk o[E2]n by
Here I'l[A6]l stay, let [A+]it rain
Let it [Am7]fall on me agai[D#dim7]n
Human words [Am]can't de[D]scribe
Can't [Gmaj7]define what's come u[Em]pon me
I att[Am]empt to make so[D]unds
But the [Gmaj7]whole thing's just b[Dm7]eyond me
[G]Love Di-[Cmaj7]vine, you are [Cm/A]mine
You have fo[G]und me [Bm/F#]just in t[E2]ime
You are [A6]my all in [D7]all, Love D[G]ivine
CHORUS:
Love Di[Em]vine,[Em/D#] I'll [Em/D]hold you[Em/C#] in the
Ce[D]nter [D/C#]of my [D#dim7]heart
Love D[Em]ivine[Em/D#], You've m[Em/D]ade me[Em/C#] see
That [D]I can [D/C#]have a [D#dim7]part
In this [Gmaj7]mystery
[Gm(#7)]Eternity will pr[D]ove this [A/C#]from the [Bm]start
That You g[Em]ave me all your[A] love
Love D[D]ivine
Tricky Chords:
Em xx2000
Em/D# xx1000
Em/D xx0000
Em/C# x4x000
D#dim7 xx1212
Gm(#7) x10332
E2 022102
Cm/A x0554x
A6 x0767x
A+ x0766x
Am7 x0555x
Gmaj7 3x0032
=======================================
LOVE DIVINE SOLO
That you gave me [Em]all your love [A] Love divine![D]
(enter solo)
 
 E-----------------------------------|--------------------------|
 B------------------------3----------|------------------10------|
 G----------2----4p2-----------------|-------------9------------|
 D---2/4-----------------------------|--------10----------------|
 A-----------------------------------|--------------------------|
 E-----------------------------------|--------------------------|
 E---8----------------8\7------------7\5------------3------------------------|
 B--------------10----------------8-------------7---------7\5---3------------|
 G---------9-------------------9-------------7--------------------------4----|
 D---------------------------------------------------------------------------|
 A---------------------------------------------------------------------------|
 E---------------------------------------------------------------------------|
 E--------------0---3-2--0------------------------------------------|
 B---------3-------------------0------------------------------------|
 G---3/4---------------------------0--------------------------------|
 D-----------------------------------------4--2----0----------------|
 A----------------------------------------------------------2-------|
 E------------------------------------------------------------------|
 E---8---------------8\7-----------7\5----------------3----------------------|
 B-------------10---------------8-----------------7--------7----5------------|
 G--------9-----------------9-----------------7----------------------7---4---|
 D---------------------------------------------------------------------------|
 A---------------------------------------------------------------------------|
 E---------------------------------------------------------------------------|
 E----------------------3----------------------------------------------------|
 B---------3---5-----------6p3-----------------------------------------------|
 G--3/4-----------------------------4p0--------------------------------------|
 D--------------------------------------------3p0----------------------------|
 A-----------------------------------------------------2p0----3--------------|
 E---------------------------------------------------------------------------|
 E---------------------------------------------------------------------------|
 B---------------------------------------------------------------------------|
 G---4---2--------------------------------------------------------1----------|
 D-------------------1--0---------------------0--2p0----4--------------------|
 A------------------------------------0h2------------------------------------|
 E---------------------------------------------------------------------------|
 E------------------------5---------------------------5----------------------|
 B-------4/5---5--7--------7-------5----7-----8-----7----8-------------------|
 G-------5/6-------------------------5---------------------------------------|
 D-------------------------------------5-----------------------------------5-|
 A---0-----------------------------------------------------------5--7p5------|
 E-----------------------------------------------------------5/7-------------|


Important: The song above is NOT stored on the Chordie server. The original song is hosted at www.azchords.com. Chordie works as a search engine and provides on-the-fly formatting. Chordie does not index songs against artists'/composers' will. To remove this song please click here.

Text color:
Chord color:
Chord grids: 
Font size:    
Page size: 

A A+ A/C# A6 Am Am7 Bm Bm/F# Cm/A Cmaj7 D D#dim7 D/C# D7 Dm7 E2 Em Em/C# Em/D Em/D# G Gm(#7) Gmaj7
Rate #3 of 3 versions

Jango Player

Login - add to songbook

SHARE PAGE  



You need to log in to post comments