Guitar Tabs, Chords and Lyrics
Update 25:10. 13:00. Site is back up running again. Songbooks are recovered. Woring on getting search back up..


Suite-Of Reflections  Phil Keaggy

Transcribed/Arranged: Robin Nelson
The melody is in here ‚?? if you know the song, you‚??ll know what to do! It wraps in a
of places in this window. Copy and paste into Word, it will fit!
 
 ||--------------0----------------------------------|--0----|
 ||---------8-------------3--------------6---3------|--1----|
 ||---7---7---7-----2---2---2------5---5---5-----0--|--2----|
 ||-----7-----------2-2-----2--------5-----------0--|--3----|
 ||---8-------8-----3-------3------6-------6--------v--3----|
 ||----------------------------------------------3----------|
 ||----------------------------------|
 ||-----------------0--^-3--1--0-----|
 ||--^-0---------2-----|-0--------0--|
 ||--|-0-----0---------|-2-----------|
 ||--|-2---2-----------|-3-----------|
 ||--|-3-3---------------------------|
 ||-------------------------------------------------------------3--------3------------|
 ||---‚??-------0--1--4--3---1------------------3--4--3-----------1‚??----1--1-----1--0---|
 ||--2-----2--------3------2--2--s->--5-------------3--3--0-----2---2----2---2----0---|
 ||------4----------5------3----------------6-------1--------1----0--------0----------|
 ||----3------------3---------------------4-------------------------------------------|
 ||-------------------------------------4---------------------------------------------|
 ||---------------------------3-6-5------------3------3--2--------|
 ||--------0----^-3---1---^-3-------3--1----1--3----3----1----1---|
 ||--0-h-2---0--|-0---0---|-3----------2--2----2--2------2----2---|
 ||-------------|-2---2---|-5----------3-------0---------0--0-----|
 ||-------------|-3---3---|-5----------------------------0--------|
 ||-------------|-3-------|-3-------------------------------------|

Brightly --->
 
 ||---------------------------------------------------------------|
 ||---0-h-1-3-3---3------3-3------3-1--0-h-1--3-3---3-----3-------|
 ||---0-h-2-2-2---0-<12>-0-0-----------0‚??h-2--2-2---0-<5>-0-------|
 ||---------------------------------------------------------0-----|
 ||---------------------------------------------------------------|
 ||---3-----3-3-3-3------3-3-----------3------3-3-3-3-----3-------|
 ||---------------------------3-6-5------------3------3--2--------|
 ||--------0----^-3---1---^-3-------3--1----1--3----3----1----1---|
 ||--0-h-2---0--|-0---0---|-3----------2--2----2--2------2----2---|
 ||-------------|-2---2---|-5----------3-------0---------0--0-----|
 ||-------------|-3---3---|-5----------------------------0--------|
 ||-------------|-3-------|-3-------------------------------------|

Brightly --->
 
 ||------------------------------------------------|--------------------------------|
 ||--0-h-1-3-3---3-------3-3---3-1--0-h-1-3-3---0--|--------------------0----0-h-1--|
 ||--0-h-2-2-2---0--<12>-0-0--------0‚??h-2-2-2---0--|--4-p-2-p-0---0-h-2---2---------|
 ||------------------------------------------------|------------4-------------------|
 ||------------------------------------------------|--------------------------------|
 ||--3-----3-3-3-3-------3-3--------3-----3-3-3-3--|--------------------------------|
 ||---------------------------------------------------------|
 ||--3----6----10--8--6--5--3----6----8--6--5-‚??3--1----5----|
 ||--2----7----10-----------0------------------0--2---------|
 ||--0----8---------------------------------------3---------|
 ||------------8---7--5--3-------5----7--5--3----------3----|
 ||-------------------------3------------------3------------|

Slowly
 
 ||-----------------X------------------------------------0--|
 ||--6--5--3---1----X---1---0------------3--2--------2------|
 ||-----------------2----------------0------2------2--------|
 ||-----------------3--------------0-------------2----------|
 ||--5--3------0----3------------2----------0--0------------|
 ||--------3--------1-------3--3----------------------------|
 ||---------------0----------------------------------|-0----|
 ||--^-3-------3----^-------3------^-1-------1-3-----|-1----|
 ||--|-2-----2------|-2---2---2----|-0-----0------0--|-2----|
 ||--|-3---3--------|-2-2-----2----|-1---1--------0--|-3----|
 ||--|-5-5----------|-3-------3----|-3-3-------------v-3----|
 ||-----------------------------------------------3---------|

Improvise melody / solo between alternating G and Am7 (x4)
 
 ||---------3------------------3---------------|
 ||----------------------------1---------------|
 ||---------0--4--2--0-------0-----------------|
 ||-------0----------------2-------2--0--------|
 ||-----2----------------0---------------3-----|
 ||---3----------------------------------------|

Form Fmaj7 chord
from arpeggio
 
 ||---------------0-----0-3-s->-2-0-2-------3-------5----------------------|
 ||--------0--1-3---1-3---------------3-------3----------------------------|
 ||----0-2--------------------------2---2---2---2--------0-2---------------|
 ||--3------------------------------0-----0-------0----4-----4-4-p-2-p-0---|
 ||-----------0-----3-2-0--------------------------------------------------|
 ||--1--------------------3-s->-2-0----------------------------------------|
 ||---------------0-----0-3-s->-2-0-2---5-----------------------0------|
 ||--------0--1-3---1-3---------------3-------3-----------------0------|
 ||----0-2--------------------------2-------2---2-------0-------1------|
 ||--3------------------------------0-----0-----------0-------0--------|
 ||-----------0-----3-2-0---------------------------2-------2----------|
 ||--1--------------------3-s->-2-0---------------3-------4------------|
 ||----------------------------------------2---5---3------------------------|
 ||--^-3-5-3-------3-5--^-3--------3-s->-5---3---0---3----0-^-3--------3----|
 ||--|-0---------0------|-2--------2-------------------0----|-2--------2----|
 ||--|-2-------2--------|-0------0--------------------------|-0------0------|
 ||--|-3-----3----------|-0----0----------------------------|-0----0--------|
 ||---------------------|-2--2-----------------3---3-----3--|-2--2----------|
 ||----------------------------------------------------------------------3-------0--|
 ||--^-3-1-0-1----------^-1-0-------------------------------3----------3-------3----|
 ||--|-0-------0-----0--|-2---2-0-----2-0‚??2-s->-4-s-<-2---2---2------4-------4------|
 ||--|-2-----------2----|-0---------------0-------------0-------0--5-------6--------|
 ||--|-3---------3------|-2---------2-----------------------------------------------|
 ||---------------------|-3-------3----------------------------------------------0--|
 ||----------------------------------------2---5---3--------------------------------|
 ||--^-3-5-3-------3-5--^-3--------3-s->-5---3---0---3-----0---3-s->-5-<-3-----3----|
 ||--|-0---------0------|-2--------2-------------------0----------------------------|
 ||--|-2-------2--------|-0------0---------------------------------------------0----|
 ||--|-3-----3----------|-0----0---------------------------------------------0------|
 ||---------------------|-2--2-----------------3---------3---3-------------2--------|
 Softly --------------------------------->
 ||--^-1-----------------------------------------4----7----12---10--8--7----|
 ||--|-3---1------------------------3----0---------5----9-------------------|
 ||--|-2-----3-2-p-0-----------2----2----0----------------------------------|
 ||--|-3-------------3-p-0-h-3------0---------------------------------------|
 ||--|-1-----------------------0--------------------------------------------|
 ||--|-1---------------------------------3-------0--------------------------|

Form melody ‚??around‚?? the chord
 
 ||------0-2-3-2-0---0-2-3-2-0---------------0-0-0------------------------|
 ||--3-------------3-----------3-3-3-3------------------------------------|
 ||--2-------------2-----------2-------2-2-2-------2-2-2------------------|
 ||--0-------------0-----------0-------------------------4-4-4‚??0-0-0------|
 ||--3-------------3-----------3--------------------------------------3-0-|
 ||-----------------------------------------------------------------------|
 ||-------------------0-----2-------------------|
 ||--0-0-3--------2-2---3-2-3---------------0---|
 ||--0-0-------0--2-2-------2-2-----------0-----|
 ||----------0----2-2-------0---4-0-----0-------|
 ||--------2------0-0-----------------2---------|
 ||--3-3----------------------------3-----------|
 ||-------------------0---------------------------|
 ||--0-0-3--------2-2---3-2-3-------------0-3-2---|
 ||--0-0-------0--2-2---------2-----0-h-2---------|
 ||----------0----2-2-------0---4-0---------------|
 ||--------2------0-0-----------------------2-0---|
 ||--3-3----------------------------0-h-2-3-------|

[F#m] [Bm]  
 
 ||----------5--------------------------------|
 ||------^-7---7-----------^-7----------------|
 ||------|-6-----6---------|-7--7-------------|
 ||----7-|-7-------7----9--|-9---------9------|
 ||--5---|-5----------9----|-9--9----9--------|
 ||--------------------------------7----------|

[F#m] [Bm]  
 
 ||----------5--9--^-12--14--10---------------|
 ||------^-7-------|-0-------0----------------|
 ||------|-6-------|-11------11---------------|
 ||----7-|-7-------|-12-----------------------|
 ||--5---|-5----------------------------------|
 ||-------------------------------------------|
 ||--^--0--------0----7----^-7-5----------------------5------------------------------|
 ||--|--8------8---10---0--|-8---8-8-----8-7--5-------5----3-<-s-2->-3-----3---3-----|
 ||--|--9----9-------------|-7-------7-----7--6-----6------2-------------2-----2-----|
 ||--|-10-10---------------------------0------7---7--------0-----------0-------0-----|
 ||---------------------------------------------0------------------------------------|
 ||----------------------------------------------------------------------------------|
 ||----------5--^-2------2--^-4------4--^-7------7--^-9-----------9--------------9--|
 ||--5-------5--|-3----3----|-5----5----|-8----8----|-10-------10---10--------10----|
 ||--6-----6----|-2--2------|-4--4------|-7--7------|-9------9---------9----9-------|
 ||--7---7------|-0---------|-6---------|-9---------|-11--11-------------10---------|
 ||----0--------------------------------------------|-0-----------------------------|
 ||---------------------------------------------------------------------------------|
 ||--|-0-------|
 ||--|-0-------|
 ||--|-2-------|
 ||--|-2-------|
 ||--|-0-------|
 ||--v-0-------|

Softly
 
 ||--^-0----------------------------------------------0-----0---------|
 ||--|-3--3-3------2-2-----3-3-----2-2-----3-3--------------2---------|
 ||--|-2------2----2-2--2--2-2--2--2-2--2--2-2--2--0-----4------------|
 ||--|-0--0-0---0-------------------------------------------2---------|
 ||------------------------------------------------------0------------|
 ||----------------3-3-----3-3-----2-2-----2-2-----3------------------|
 ||--^-0----------------------------------------------0-----0-------|
 ||--|-3--3-3------2-2-----3-3-----2-2-----3-3--------------2-------|
 ||--|-2------2----2-2--2--2-2--2--2-2--2--2-2--2--0-----4----------|
 ||--|-0--0-0---0-------------------------------------------2-------|
 ||------------------------------------------------------0----------|
 ||----------------3-3-----3-3-----2-2-----2-2-----3----------------|
 ||--^-3--2--2--0------7--9--10--^-0---------------1-p-0-----------------|
 ||--|-2-----------^-7-----------|-0----2-p-0------------3-2--5-p-3------|
 ||--|-3-----------|-7-----------|-1----------3---------------------2----|
 ||--|-2-----------|-9----7------|-2------------4--4----------0-------0--|
 ||----------2--0--|-9-----------|-2----4--------------------------------|
 ||----------------|-7-----------|-0-------------------------------------|
 ||-----------0-2------------5->-s-7-5------------------------|
 ||----0-2--3---3-3-------3------------5----------------------|
 ||-------------2---2---2----------------6-------6------------|
 ||-------------0-----0--------------------7---7--------------|
 ||------0--2-4----------------------0-------0----------------|
 ||----3------------------------------------------------------|

Softly . . . !!
 
 ||--0-h-1-p-0-----------0----------------0----------6-------6---------^-3--------17--|
 ||------------3---3---3---3-----3--3---3---3-----3----8-------8-------|-3------------|
 ||----------------2-2---------2----1-1---------1--------7-------7-----|-4-----4------|
 ||----------------3---------3------2---------2------------8-------8---|-5---5--------|
 ||------------------------------------------------------------------------0----------|
 ||-----------------------------------------------------------------------------------|

Improvise melody / solo around alternating Am7 and D7
 
 ||--0----2----0----2----0----2----0----2----|
 ||--1----1----1----1----1----1----1----1----|
 ||--0----2----0----2----0----2----0----2----|
 ||--2----0----2----0----2----0----2----0----|
 ||--0---------0---------0---------0---------|
 ||------------------------------------------|

[G] [A] [D] [G] 
 
 ||----------------^-0----------------------------|
 ||----------------|-2--3--2--3-------------------|
 ||--^-0-----0--2--|-2--------2--2--------0-------|
 ||--|-0--0--------|-2--------0-----4--0----------|
 ||--|-2-----2--0--|-0--------------------2-------|
 ||--|-3--3-------------------------------3-------|

[G] [A] [D]  
 
 ||--------------^-0-----------------------|
 ||--------------|-2--3--2--3--------------|
 ||-----0--2-----|-2--------2--2-----------|
 ||--0--------2--|-2--------0----4-0-------|
 ||--2--------0--|-0-----------------------|
 ||--3-------------------------------------|

[Em] [A] [F#m] [Bm] [F#m] [Bm] 
 
 ||---------------------------------------^-2-----------|
 ||---^-0--^-2--^-2--5--3----2-h-3-p-2----|-2-----------|
 ||---|-0--|-2--|-2-----4--4-----------4--|-2-----^-4---|
 ||---|-2--|-2--|-3-----4-----------------|-3--4--|-4---|
 ||---|-2--|-0--|-3-----------------------|-3-----|-2---|
 ||---|-0-------|-2-----------------------|-2--2--|-2---|

Don‚??t know what to do with this for one guitar . . .
 
 ||--3------------------7-7-----|
 ||----5--------------8---------|
 ||------5----------9-----------|
 ||--------7-s->-10-------------|
 ||-----------------------------|
 ||-----------------------------|

(x3)
 
 ||--7-p-5-s->-3-2--^-0--5--^-2-------2---2--^-4----------0------||----------0------|
 ||-----------------|-1-----|-3-----3--------|-5------5----------||------5----------|
 ||-----------------|-0-----|-2---2----------|-4------4----------||------4----------|
 ||-----------------|-2-----|-0-0------------|-6----------4-h-6--||----------4-h-6--|
 ||-----------------|-3----------------------|-7----6---7--------||----6---7--------|
 ||------------------------------------------|-0--0--------------||--0--------------|

Finale
 
 ||--------------------------------------0---------------------------0--|
 ||-------------------------5---4-------------0--2--------^-4--------5--|
 ||-------------2--4-s->-6---------4----------4-----------|-4--------4--|
 ||------^-4--6-----------------------4--6----2-----4-----|-6------6----|
 ||------|-4----------------------------------0--------7--|-7----7------|
 ||--(2)-|-2--------------------0-------------------------|-0--0--------|
 ||-----^-0----------0--------------------------^-0--------0----|
 ||-----|-1------0-1----3-5---------------------|-0-------------|
 ||-----|-2--1-2--------0---2--4---^-4-5--0--2--|-1--------1----|
 ||-----|-4------------------------|-3----------|-4------4------|
 ||---0----------------------------|-3----------|-2----2--------|
 ||---------------------3-----------------------|-0--0----------|
 ||-----4--^-5--7--9--12---^-11------------^-7---9----------0--------0---|
 ||---7----|-7-------------|-9---12--7--9--|-5------^-7--5--5--------5---|
 ||---6----|-6-------------|-9-------------|-6------|-6-----4--------4---|
 ||---7----|-7-----7-------|-9-------------|-7------|-7-----6------6-----|
 ||--------------------------------------------0-----------------7-------|
 ||------------------------------------------------------------0---------|
 ||------------------------------------------^-0----------0---------0-------|
 ||----^-7----------5----5-------------------|-5----------5---------5-------|
 ||----|-5------4-5----7---------------------|-4--------4---------4---------|
 ||----|-7--6-7--------5---7-9--^-9-10--5-7--|-6------6---------6-----------|
 ||--0--------------------------|-8----------|-7----7---------7-------------|
 ||-----------------------------|-8----------|-0--0---------0---------------|
 ||-----------------------------7-----7---11------^-0--------<12>----|
 ||--bend--9-( ^ 1/2)-(x4)----5---5---9---10------|-0----------------|
 ||-------------------------4---------9---11------|-9----------------|
 ||-----------------------------------------------|-9----------------|
 ||-----------------------------------------------|-7----------------|
 ||-----------------------------------------------|-0----------------|


Important: The song above is NOT stored on the Chordie server. The original song is hosted at www.azchords.com. Chordie works as a search engine and provides on-the-fly formatting. Chordie does not index songs against artists'/composers' will. To remove this song please click here.

Text color:
Chord color:
Chord grids: 
Font size:    
Page size: 

A Bm D Em F#m G
Rate #2 of 2 versions

Login - add to songbook

SHARE PAGE  



You need to log in to post comments