Guitar Tabs, Chords and Lyrics
Update 25:10. 13:00. Site is back up running again. Songbooks are recovered. Woring on getting search back up..


Things I Will Do  Phil Keaggy

Release Date: October, 1976
I originally learned this song from his now long out-of-print "The Phil Keaggy
Songbook." I've since lost that song book (ARRRGGGHH!)
I tabbed this from my memory, and have played against the record/CD. I think it sounds
pretty close.
Lyrics are from philkeaggy.com.
You can find the tabs for some of the less common chords at the bottom.
(Revision 9.2.2012) Changed one chord in 2 places, from Bm/A to D/A
(Revision 8.25.2012) added chords above the tabs; additional chord tabs; some spacing adjustment
(INTRO)
[D] [G] [Am7] [A7]  
 
 e:--0h2--3-2p0-------------------0-----0--|
 B:--3---------3---------------1----1---2--|
 G:-----2-------2-0-2--0-------0-0---0--0--|
 D:--0-----------4-------------------------|
 A:------------------3--2p0----0--------0--|
 E:------------------------3---------------|

Last [D]night I asked my [Am7]heavenly [G]Father
A[Bm]bout the [D]way I should [Am7]go.[G]
[Bm]I said "[D]Lord, I can't [F]se[G]e Your [Am]path be[Em]fore me.
[Bm]All I can [F#m]see is rocky [Am]road.
So take me [D]through."
And He [Am7]spoke to me these [G]words of simple [D]truth.
D Dmaj9(no 3) D G F#m Em Bm A D
"And I will lead the blind by the way they do not know,
D Dmaj9(no 3) D G F#m Em Bm Asus4 A
In paths they do not know I will guide them.
[Cdim7] [Bm7] [D/A] [Bm6/D]  
 
 e:-----3----6----9----12----2----2----2---------|
 B:-----2----5----8----11----3----3----0---------|
 G:-----3----6----9----12----4----2----1---------|
 D:-----2----5----8----11----4---------0---------|
 A:--------------------------2----0--------------|
 E:----------------------------------------------|

I will make dark-ness in to light before them
[G] And [F#m]rugged places [G]in[Bdim7]to [A]plains[Asus4].[A]
(CHORUS)
These are the [D]things I will [G/D]do, I will [Dmaj7]do, I will [G/D]do
And I will [D]not leave them [Am7]un- [G/B] [A]done.[Asus4] [A]
These are the [D]things I will [G/D]do, I will [F#]do, I will [Bm]do[Bm/A] [Gmaj7]
And I will [F#m]not [G]leave them [E/G#]un-[A]
[D] [G] [Am7] [A7]  
 
 e:--2----3-2p0-------------------0----0--|
 B:--3---------3---------------1---1---2--|
 G:--2--2-------2-0-2--0-------0-0--0--0--|
 D:--0-----------4------------------------|
 A:------------------3--2p0----0-------0--|
 E:------------------------3--------------|

done.
[D]We[G/D]ll [D]I'm only one, of [Am7]countless [G]thousands
Who have [Bm]walked up[D]on pilgrim's [Am7]way.[G]
And [Bm]when[D]ever I [F]thi[G]rst,
I'll [Am]seek my Lord [Em]first
And [Bm]listen to [F#m]what He will [Am]say.
Lord, let me [D]hear You, and He [Am7]spoke to me
These [G]words of simple [D]truth,
D Dmaj9(no 3) D G F#m Em
Behold I will do something new,
[Bm]Now it [A]will spring [D]forth,
D Dmaj9(no 3) D G F#m Em Bm Asus4 A
And you will not be a- ware of it.
[Cdim7]  
 
 e:-----3--6---9--12-|
 B:-----2--5---8--11-|
 G:-----3--6---9--12-|
 D:-----2--5---8--11-|
 A:------------------|
 E:------------------|

I will even make a
[Bm]roadway [D/A]in the [Bm6/D]wilderness,[G]
And [F#m]rivers in the [G]de[Bdim7]- [A]se[Asus4]rt.[A]
(CHORUS)
These are the [D]things I will [G/D]do, I will [Dmaj7]do, I will [G/D]do
And I will [D]not leave them [Am7]undo[G/B]ne.[A] [Asus4] [A]
These are the [D]things I will [G/D]do, I will [F#]do, I will [Bm]do[Bm/A] [Gmaj7]
And I will [F#m]not [G]leave them [E/G#]un- [A] [D]done.
[Bm] And [A]I will [F#m]not [G]leave them [E/G#]un-[A]
[D] [G] [D]  
 
 e:--2----3-2p0---------------2|
 B:--3---------3--------------3|
 G:--2--2-------2-0-2--0------2|
 D:--0-----------4------------0|
 A:------------------3--2p0----|
 E:------------------------3---|

done.
CHORDS
 
 -----------

Dmaj9(no 3) xx0220
Asus4 x02230
Bdim7 xx3434
G/B x20003
G/D xx0003
Bm6/D xx0102
E/G# 422100

Important: The song above is NOT stored on the Chordie server. The original song is hosted at www.azchords.com. Chordie works as a search engine and provides on-the-fly formatting. Chordie does not index songs against artists'/composers' will. To remove this song please click here.

Text color:
Chord color:
Chord grids: 
Font size:    
Page size: 

A A7 Am Am7 Asus4 Bdim7 Bm Bm/A Bm6/D Bm7 Cdim7 D Dmaj7 E/G# Em F F# F#m G G/B G/D Gmaj7
Rate #1 of 2 versions

Login - add to songbook

SHARE PAGE  



You need to log in to post comments