Guitar Tabs, Chords and Lyrics
Major upgrade!! After one year development the new version of Chordie is now online! Please give feedback.


Skye  Runrig

(Live)
Tuning: Standard
I really love this song but can only find a live version of it, no recorded
version. However, it still sounds great. Here are the main lead riffs and
the rhythm chords; I have not quite worked out the solo in the middle
though. Enjoy!
[A] [E] [F#m] [D] [A] [E] [F#m] [D]  
 
 e||--------------------------2-----5--2------------|--------------------------2--5--2h5-----5-||
 B||-----------5--5-----------------------5--2p0----|-----------5--5---------------------------||
 G||--2--2--2---------------------------------------|--2--2--2---------------------------------||
 D||------------------------------------------------|------------------------------------------||
 A||------------------------------------------------|------------------------------------------||
 E||------------------------------------------------|------------------------------------------||

[A] [E] [F#m] [D] [A] [E] [F#m] [D]  
 
 e||--------------------------2-----5--2------------|-----------------------------------2------||
 B||-----------5--5-----------------------5--2p0----|--------------2h5------------2h5------5--2||
 G||--2--2--2---------------------------------------|-------------------------------------------||
 D||------------------------------------------------|------------------------------------------||
 A||------------------------------------------------|--0--0--0--0--------------0---------------||
 E||------------------------------------------------|-------------------------------------------||

How can't you [E]see
The wilderness [A]growing free
Time [E]wounded and scarred
Stroking [D]away the [A]years
It's hard to [E]believe
But memories are [F#m]old ghosts
Mountains of [A]black and gold
Sunsets falling [E]over the moor
Oh take me [F#m]there
[E]'S na horo eile, [F#m]horo bho
[E]'S na horo bho, [F#m]hillean o
[E]'S na horo eille [F#m]ho, Take me there
(Intro)
You take your [E]dream
And make life [A]what you feel
Appearances [E]lead to deceive
This drama so [D]far from [A]me
[E]Destiny
On facts aching [F#m]wings
Wild geese fly [A]low over your shores
Hearts sailing [E]over the trees
Oh take me [F#m]there
[E]'s na horo eile, [F#m]horo bho
[E]'s na horo bho, [F#m]hillean o
[E]'s na horo eille ho, [F#m]Take me there
Lead part after repeating the Intro after the Interlude:
[A] [E] [F#m] [D] [A] [E] [F#m] [D]  
 
 e||----------------------------------------------|----------------------------------------------||
 B||5----------------2h3----2-----------3----2h3--|--5----------------2h3----2-----------3----2h3||
 G||------2-----4-----------------2---------------|--------2-----4-----------------2-------------||
 D||----------------------------------------------|----------------------------------------------||
 A||----------------------------------------------|----------------------------------------------||
 E||----------------------------------------------|----------------------------------------------||


Important: The song above is NOT stored on the Chordie server. The original song is hosted at www.azchords.com. Chordie works as a search engine and provides on-the-fly formatting. Chordie does not index songs against artists'/composers' will. To remove this song please click here.

Text color:
Chord color:
Chord grids: 
Font size:    
Page size: 

A D E F#m
Rate #1 of 1 versions

Jango Player

Login - add to songbook

SHARE PAGE  




You need to log in to post comments