Guitar Tabs, Chords and Lyrics
Update 25:10. 13:00. Site is back up running again. Songbooks are recovered. Woring on getting search back up..


Officer  Slightly Stoopid

 
 -------------------------------------------------------------------------------

Officer - Slightly Stoopid
 
 -------------------------------------------------------------------------------

Tuning:standard
Intro (guitar 1 with delay)
 
 e|--------0h4??(x4)------4h5-(x4)-----5h7-(x4)------ 4h5-(x4)-|
 B|-----------------------------------------------------------|
 G|-----------------------------------------------------------| (x2)
 D|-----------------------------------------------------------|
 A|-----------------------------------------------------------|
 E|-----------------------------------------------------------|

than the verse kicks in while guitar one plays riff 1
Verse (guitar 2 clean)
(4 strums each chord - reggae style)
[E] [A] [B] [A]  
 
 e|------9--------------5--------------7--------------5----------------------|
 B|------9--------------5--------------7--------------5----------------------|
 G|------9--------------6--------------8--------------6----------------------| (x4)
 D|------9--------------7--------------9--------------7----------------------|
 A|------7--------------7--------------9--------------7----------------------|
 E|------X--------------5--------------7--------------5----------------------|

Riff (guitar 1)
 
 e|------4~~~-----------5~~~-----------7~~~-----------5~~~--------------------| (x4)
 B|---------------------------------------------------------------------------|

Verse (just guitar 2)
It all s[E]tarted late on a[A] saturday night
Said who's g[B]ot the spliffs and w[A]ho's got the pint?

Important: The song above is NOT stored on the Chordie server. The original song is hosted at www.azchords.com. Chordie works as a search engine and provides on-the-fly formatting. Chordie does not index songs against artists'/composers' will. To remove this song please click here.

Text color:
Chord color:
Chord grids: 
Font size:    
Page size: 

A B E
Rate #1 of 2 versions

Jango Player

Login - add to songbook

SHARE PAGE  




You need to log in to post comments