Guitar Tabs, Chords and Lyrics
Update 25:10. 13:00. Site is back up running again. Songbooks are recovered. Woring on getting search back up..


Haunting Me  Stabbing Westward

I am BurgerMama and this song Rules
Tuning
[D]  
[A]  
[D]  
[G]  
[B]  
[E]  
Wah Part
 
 -----------------------------------
 -----------------------------------
 -----------------------------------
 -----------------------------------
 ---0‚??5*7‚??8*7--7---7‚??5*7------------
 -----------------------------------

Bridge (Kinda)‚?¶when he says ‚??Gooooooooo‚??
 
 ------------------------------------------------------------
 ------------------------------------------------------------
 ------------------------------------------------------------
 ------------------------------------------------------------
 ---10-10-10-10--12-12-12-12-12--2-2-2-2-2-2-2-2-2-2-2-2-2---
 ---10-10-10-10--12-12-12-12-12--2-2-2-2-2-2-2-2-2-2-2-2-2---

Chorus
 
 ------------------------------------------------------------
 ------------------------------------------------------------
 ------------------------------------------------------------
 ------------------------------------------------------------
 ---2-2-2-2-2-2-2-2--10-10-10-10--12-12-12-12-12-12-12-12----
 ---2-2-2-2-2-2-2-2--10-10-10-10--12-12-12-12-12-12-12-12----

Wah Part is played during Chorus also
 
 -----------------------------------
 -----------------------------------
 -----------------------------------
 -----------------------------------
 ---0‚??5*7‚??8*7--7---7‚??5*7------------
 -----------------------------------


Important: The song above is NOT stored on the Chordie server. The original song is hosted at www.azchords.com. Chordie works as a search engine and provides on-the-fly formatting. Chordie does not index songs against artists'/composers' will. To remove this song please click here.

Text color:
Chord color:
Chord grids: 
Font size:    
Page size: 

A B D E G
Rate #1 of 9 versions

Jango Player

Login - add to songbook

SHARE PAGE  




You need to log in to post comments