Guitar Tabs, Chords and Lyrics
Server problems seems to be fixed. Chordie has been experiencing problems with songs disappearing. These issues now seems to be fixed, but still verifying the fix. If you find anything strange, please email admin@chordie.com.


Versteckt  Subway to Sally

 
 -------------------------------------------------------------------------------

Subway to Sally - Versteckt
 
 -------------------------------------------------------------------------------

Tuning: EADGBE
Capo @ 1st fret
NOTE: I skipped the guitar harmonics at the beginning and the end.
Also after having this tab finished for over a year now and just can't
figure out the real intro part, I skipped that too...
Em7: keep the B string open
 
 ||-----|-----|--x--|----|
 ||-----|-----|-----|----|
 ||-----|-----|-----|----|
 ||-----|--x--|-----|----|
 ||-----|--x--|-----|----|
 ||-----|-----|-----|----|

INTRO:
 
 ------0-0----0-3-5-----0-3-0--|--
 ------1-1----1-3-5-----1-3-1--|--
 ------------------------------|--
 ------------------------------|--
 ---0-------0--------0---------|--
 ------------------------------|--

|> <= x2 |
VERSE:
 
 --------0--------|-----0--------------------1---------|----------0-----0--|--
 --------1-----3--|-----1--------3---------2---2----3--|--------0---0---0--|--
 --------------x--|--------------0-------2-------2--x--|------0-------0-0--|--
 --------------4--|---------------------------------4--|----------------2--|--
 -----1-----1--5--|--3-----3--2-----2--0------------5--|--3-2-----------2--|--
 --0--------------|------------------------------------|----------------0--|--

|> <= 2x|
1. Du hast mich gesucht, heute Morgen am Meer, im Seetang und zwischen den Steinen.
2. Doch fandest du nur einen silbernen Fisch, sein Tod lie? dich bitterlich weinen.
PRE-CHORUS:
Du [Em7]hast mich gesucht, in dem [Cadd9]Haus auf dem Fels,
im [Em7]Keller, in Zimmern und [Cadd9]Kammern.
Du [Em7]fandest nur Staub, doch [Cadd9]keinerlei Grund,
 
 --------0------|--------0------|--------0-----0--|--
 ------1---1----|------0---0----|------0---0---0--|--
 ----0-------0--|----0-------0--|----0-------0-0--|--
 ---------------|---------------|--------------2--|--
 --3------------|--2------------|--------------2--|--
 ---------------|---------------|--0-----------0--|--

dich an deine Hoffnung zu klammern.
CHORUS:
Du [Am]kannst mich nicht [F9]finden, ich [Em]hab mich verst[F9]eckt,
ich [Am]hab deine [F9]Augen mit [Dm]Schatten be[C]deckt.
Du [Am]kannst mich nicht [F9]finden, du [Em]kannst mich nicht [F9]sehn.
Schl[Am]ie? deine[F9] Augen, zäh[Dm]l noch mal bi[C]s zehn.
N[G]och mal bis [Am]zehn.
VERSE:
 
 --------0--------|-----0--------------------1---------|----------0-----0--|--
 --------1-----3--|-----1--------3---------2---2----3--|--------0---0---0--|--
 --------------x--|--------------0-------2-------2--x--|------0-------0-0--|--
 --------------4--|---------------------------------4--|----------------2--|--
 -----1-----1--5--|--3-----3--2-----2--0------------5--|--3-2-----------2--|--
 --0--------------|------------------------------------|----------------0--|--

|> <= 2x|
1. Du hast mich bei Freunden und Feinden gesucht, hast Dichter und Richter bestochen.
2. Doch diese und jene war'n ratlos wie du, nun zählst du die Tage und Wochen.
PRE-CHORUS:
Du [Em7]hast alle Hexen und [Cadd9]Magier befragt,
sie [Em7]lasen in Kugeln und [Cadd9]Sternen,
doch [Em7]falsche Propheten, die [Cadd9]finden mich nie,
 
 --------0------|--------0------|--------0-----0--|--
 ------1---1----|------0---0----|------0---0---0--|--
 ----0-------0--|----0-------0--|----0-------0-0--|--
 ---------------|---------------|--------------2--|--
 --3------------|--2------------|--------------2--|--
 ---------------|---------------|--0-----------0--|--

solang sie das Suchen nicht lernen.
CHORUS:
Du [Am]kannst mich nicht [F9]finden, ich [Em]hab mich verst[F9]eckt,
ich [Am]hab deine [F9]Augen mit [Dm]Schatten be[C]deckt.
Du [Am]kannst mich nicht [F9]finden, du [Em]kannst mich nicht [F9]sehn.
Schl[Am]ie? deine[F9] Augen, zäh[Dm]l noch mal bi[C]s zehn.
N[G]och mal bis [Am]zehn.
INTERLUDE:
Such [Em7]in allen Ecken, such [Cadd9]hinter den Hecken,
ich [Em7]werd mich verstecken und [Cadd9]schweigen.
Schau [Em7]über die Schulter, vie[Cadd9]lleicht bin ich da,
 
 --------0------|--------0------|--------0-----0--|--
 ------1---1----|------0---0----|------0---0---0--|--
 ----0-------0--|----0-------0--|----0-------0-0--|--
 ---------------|---------------|--------------2--|--
 --3------------|--2------------|--------------2--|--
 ---------------|---------------|--0-----------0--|--

zur rechten Zeit will ich mich zeigen.
CHORUS:
Du [Am]kannst mich nicht [F9]finden, ich [Em]hab mich verst[F9]eckt,
ich [Am]hab deine [F9]Augen mit [Dm]Schatten be[C]deckt.
Du [Am]kannst mich nicht [F9]finden, du [Em]kannst mich nicht [F9]sehn.
Schl[Am]ie? deine[F9] Augen, zäh[Dm]l noch mal bi[C]s zehn.
N[G]och mal bis [Am]zehn.

Important: The song above is NOT stored on the Chordie server. The original song is hosted at www.azchords.com. Chordie works as a search engine and provides on-the-fly formatting. Chordie does not index songs against artists'/composers' will. To remove this song please click here.

Text color:
Chord color:
Chord grids: 
Font size:    
Page size: 

Am C Cadd9 Dm Em Em7 F9 G
Rate #1 of 1 versions

Jango Player

Login - add to songbook

SHARE PAGE  




You need to log in to post comments