Guitar Tabs, Chords and Lyrics
Login is temporarily disabled for some users. Do not panic. Will be back in an hour or two. DO NOT REREGISTER!!


Who's Your Partner  The Menzingers

 
 -----------------------------------------------------------------------------

WHO'S YOUR PARTNER? - The Menzingers
 
 -----------------------------------------------------------------------------

Tuning:
Great song here by a great band. I saw them play this live, and I know they used a
capo on some songs, but I can't remember if they did or not on this. Anyways, you
could probably put one on the third fret make it a little easier. Tab is at the bottom.
Chords:
Bb 6-8-8-7-6-6 (w/ capo, G)
Eb x-6-8-8-6-6 (w/ capo, C)
Cm x-3-5-5-4-3 (w/ capo, Am)
Gm 3-5-5-3-3-3 (w/ capo, Em)
INTRO: Bb
VERSE: (w/ verse lead)
[Bb]I was born on a light-skinned road,
I was born with an engineers gold,
[Eb]I did better than mos[Bb]t.
[Bb]Now I live on a dark-skinned road,
The collectors call they try to take my gold,
[Eb]Im happier than mo[Bb]st.
BRIDGE:(w/lead)
[Eb]The streets are never clean
My [Cm]friends they help preserve my innocence.
[Bb] [Gm]  
VERSE:
[Bb]We shared our cigarettes,
At the window we placed our bets,
[Eb]They wouldnt call our names, Tickets hide our sha[Bb]me.
[Bb]So we laughed through glossy eyes,
Surely the gods would recognize,
[Eb]Our good intentions, we showed them, The sweat covered ou[Bb]r skin.
BRIDGE: (w/lead)
[Eb]We aged a decade in an hour,
[Cm]We gave away our innocence.
[Bb]  
INTERLUDE:
(n.C)
So let these simple songs get caught in our heads,
[Gm]Brace the frames of our worthless beds.
[Bb]All my life never gave a f**k,
[Gm]Someone please [Cm]wake me up.
GUITAR SOLO:
[Bb] [Gm]  
OUTRO:
[Bb]So let these simple songs get caught in our heads,
[Gm]Brace the frames of our worthless beds.
[Bb]All my life never gave a f**k,
[Gm]Someone please [Cm]wake me up. [Bb]
VERSE LEAD:
[Bb] [Eb] [Bb]  
 
 e|-----------------|-----------------|------------------|------------------|
 B|-----------------|-----------------|--6-6-6-6-6-6-6---|------------------|
 G|--7-7-7-7-7-7-7-7|--7-7-7-7-7-7-7-7|-8-8-8-8-8-8-8-8-7|--7-7-7-7-7-7-7-7-|
 D|-8-8-8-8-8-8-8-8-|-8-8-8-8-8-8-8-8-|------------------|-8-8-8-8-8-8-8-8--|
 A|-----------------|-----------------|------------------|------------------|
 E|-----------------|-----------------|------------------|------------------|

pm . . . . . . . . . . . . . . . . . . . . . . . . . . . . . . .
BRIDGE LEAD:
[C] [Bb]  
 
 e|----------------------------|--------------------------|
 B|----------------------------|--------------------------|
 G|-10--1010--10-10---1010--10-|-8---8-8---8--8---8-8---8-|
 D|----------------------------|--------------------------|
 A|-8---8-8---8--8----8-8---8--|-6---6-6---6--6---6-6---6-|
 E|----------------------------|--------------------------|

[Bb]  
 
 e|----------------------------|----------------------------|
 B|----------------------------|----------------------------|
 G|-10--8-8---7-7--------------|-10--8-8---7-7--------------|
 D|-----------------10-10-8--8-|----------------10-10-8--8--|
 A|----------------------------|----------------------------|
 E|----------------------------|----------------------------|

[Gm]  
 
 e|-----------------------------|--------------------------------|
 B|-----------------------------|--------------------------------|
 G|-----7----7----7----7--------|--10-10-8-8--7-7----------------|
 D|-8h10-8h10-8h10-8h10-10108-8-|------------------10-12-10-12---|
 A|-----------------------------|--------------------------------|
 E|-----------------------------|--------------------------------|

GUITAR SOLO (same as bridge lead)
[Bb]  
 
 e|----------------------------|----------------------------|
 B|----------------------------|----------------------------|
 G|-10--8-8---7-7--------------|-10--8-8---7-7--------------|
 D|-----------------10-10-8--8-|----------------10-10-8--8--|
 A|----------------------------|----------------------------|
 E|----------------------------|----------------------------|

[Gm]  
 
 e|-----------------------------|--------------------------------|
 B|-----------------------------|--------------------------------|
 G|-----7----7----7----7--------|--10-10-8-8--7-7----------------|
 D|-8h10-8h10-8h10-8h10-10108-8-|------------------10-12-10-12---|
 A|-----------------------------|--------------------------------|
 E|-----------------------------|--------------------------------|


Important: The song above is NOT stored on the Chordie server. The original song is hosted at www.azchords.com. Chordie works as a search engine and provides on-the-fly formatting. Chordie does not index songs against artists'/composers' will. To remove this song please click here.

Text color:
Chord color:
Chord grids: 
Font size:    
Page size: 

Bb C Cm Eb Gm
Rate #1 of 1 versions

Login - add to songbook

SHARE PAGE  



You need to log in to post comments