Guitar Tabs, Chords and Lyrics
Major upgrade!! After one year development the new version of Chordie is now online! Please give feedback.


Still Hurts   Therapy?

 
 --------|--------|--------|--------|
 --------|--------|--------|--------|
 --------|--------|--------|--------|
 0-------|0-------|0---0---|--0--0--|
 0-------|0-------|0---0---|--0--0--|
 0-------|0-------|0---0---|--0--0--|
 --------|--------|--------|--------|
 3-------|3-------|3---3---|--3--3--|
 2-------|1-------|4---1---|--2--2--|
 0-------|0-------|0---0---|--0--0--|
 --------|--------|--------|--------|
 --------|--------|--------|--------|
 --------|--------|--------|--------|
 --------|--------|--------|--------|
 3-3-3-3-|--------|5-5-5-5-|7-7-7-7-|
 3-3-3-3-|3-3-3-3-|5-5-5-5-|7-7-7-7-|
 1-1-1-1-|3-3-3-3-|3-3-3-3-|5-5-5-5-|
 --------|3-3-3-3-|--------|--------|
 --------|--------|--------|--------|
 --------|--------|--------|--------|
 3-3-3-3-|--------|--------|--------|
 3-3-3-3-|3-3-3-3-|77-77---|77-77-7-|
 1-1-1-1-|3-3-3-3-|77-77---|77-77-7-|
 --------|3-3-3-3-|77-77---|77-77-7-|

 


 


 Chorus


 


 

 
 --------|--------|---------|---------|
 --------|--------|---------|---------|
 10--9-8-|7-------|10--12-9-|10-------|
 --------|--------|---------|---------| * 2
 8---7-6-|5-------|8---10-7-|8--------|
 -00--0-0|-0000000|--00--0-0|--0000000|
 -------|-------|
 -------|-------|
 -------|-------|

 


 00-0-0-|0-0-000|


 00-0-0-|0-0-000|


 00-0-0-|0-0-000|


 


 Repeat all the above twice, then hold a 000--- until....


 


 

 
 --------|--------|--------|--------|
 --------|--------|--------|--------|
 3---5-7-|10------|9--12-9-|10------|
 --------|--------|--------|--------|
 1---3-5-|8-------|7--10-7-|8-------|
 --------|--------|--------|--------|
 ------------|-------|
 ------------|-------|
 15-14-12-10-|9-7--6-| Completely can't get the timing on this part written down for some reason.
 ------------|-------| These are the chords.
 13-12-10-8--|7-5--4-|
 ------------|-------|

 


 


 Chorus * 2


 


 

 
 --------|-------|---------|
 --------|-------|---------|
 10--9-8-|7--6--5|---------|
 --------|-------|6-5--3-0-|
 8---7-6-|5--4-3-|6-5--3-0-|
 -00--0-0|-00-0-0|6-5--3-0-|


Important: The song above is NOT stored on the Chordie server. The original song is hosted at www.azchords.com. Chordie works as a search engine and provides on-the-fly formatting. Chordie does not index songs against artists'/composers' will. To remove this song please click here.

This song is displayed as text-only. Transposing and tuning is only available for chordpro-songs.
Rate #1 of 1 versions

Jango Player

Login - add to songbook

SHARE PAGE  




You need to log in to post comments