Guitar Tabs, Chords and Lyrics
Login is temporarily disabled for some users. Do not panic. Will be back in an hour or two. DO NOT REREGISTER!!


Unforgettable  Thomas Rhett

[Verse 1] 
 
 e |-----------------------------|
 B |-----0-----1--------3-----1--|
 G |-----------------------------|
 D |-----------------------------| x4
 A |-----------0--------2-----0--|
 E |--3--------------------------|

[Pre-Cborus] 
 
 e |-----------------------------|
 B |-----0-----1--------3-----1--|
 G |-----------------------------|
 D |-----------------------------| x2
 A |-----------0--------2-----0--|
 E |--3--------------------------|

[Cborus] 
[C] [D] [G] [Em] [C] [D] 
 
 e |----0------2--------3-----0--|--0------2--|
 B |----1------3--------0-----0--|--1------3--|
 G |----0------2--------0-----0--|--0------2--|
 D |----2------0--------0-----2--|--2------0--| x1
 A |----3---------------2-----2--|--3---------|
 E |--------------------3-----0--|------------|
 e |-----------------------------|
 B |-----0-----1--------3-----1--|
 G |-----------------------------|
 D |-----------------------------| x3
 A |-----------0--------2-----0--|
 E |--3--------------------------|

[Verse 2] 
 
 e |-----------------------------|
 B |-----0-----1--------3-----1--|
 G |-----------------------------|
 D |-----------------------------| x4
 A |-----------0--------2-----0--|
 E |--3--------------------------|

[Pre-Cborus 2] 
 
 e |-----------------------------|
 B |-----0-----1--------3-----1--|
 G |-----------------------------|
 D |-----------------------------| x2
 A |-----------0--------2-----0--|
 E |--3--------------------------|

[Cborus] 
[C] [D] [G] [Em] [C] [D] 
 
 e |----0------2--------3-----0--|--0------2--|
 B |----1------3--------0-----0--|--1------3--|
 G |----0------2--------0-----0--|--0------2--|
 D |----2------0--------0-----2--|--2------0--| x1
 A |----3---------------2-----2--|--3---------|
 E |--------------------3-----0--|------------|
 e |-----------------------------|
 B |-----0-----1--------3-----1--|
 G |-----------------------------|
 D |-----------------------------| x3
 A |-----------0--------2-----0--|
 E |--3--------------------------|

[Bridge] 
[C] [D] [G] [Em] [C] [D] 
 
 e |----0------2--------3-----0--|--0------2--|
 B |----1------3--------0-----0--|--1------3--|
 G |----0------2--------0-----0--|--0------2--|
 D |----2------0--------0-----2--|--2------0--| x3
 A |----3---------------2-----2--|--3---------|
 E |--------------------3-----0--|------------|

[C] [D]  
 
 e |----0------2--|
 B |----1------3--|
 G |----0------2--|
 D |----2------0--| x1
 A |----3---------|
 E |--------------|

[Cborus] 
[C] [D] [G] [Em] [C] [D] 
 
 e |----0------2--------3-----0--|--0------2--|
 B |----1------3--------0-----0--|--1------3--|
 G |----0------2--------0-----0--|--0------2--|
 D |----2------0--------0-----2--|--2------0--| x1
 A |----3---------------2-----2--|--3---------|
 E |--------------------3-----0--|------------|
 e |-----------------------------|
 B |-----0-----1--------3-----1--|
 G |-----------------------------|
 D |-----------------------------| x3
 A |-----------0--------2-----0--|
 E |--3--------------------------|

[Outro] 
 
 e |-----------------------------|
 B |-----0-----1--------3-----1--|
 G |-----------------------------|
 D |-----------------------------| x3
 A |-----------0--------2-----0--|
 E |--3--------------------------| 


Important: The song above is NOT stored on the Chordie server. The original song is hosted at www.azchords.com. Chordie works as a search engine and provides on-the-fly formatting. Chordie does not index songs against artists'/composers' will. To remove this song please click here.

Text color:
Chord color:
Chord grids: 
Font size:    
Page size: 

C D Em G
Rate #1 of 1 versions

Jango Player

Login - add to songbook

SHARE PAGE  



You need to log in to post comments