Guitar Tabs, Chords and Lyrics
Major upgrade!! After one year development the new version of Chordie is now online! Please give feedback.


Spring nicht  Tokio Hotel

 
 -------------------------------------------------------------------------

TOKIO HOTEL - SPRING NICHT
 
 -------------------------------------------------------------------------

intro:
 
 |-----------------------------|
 |-----------------------------|
 |-----------------------------| C# , B
 |---6------4------2------1----|
 |-----7------6------4------2--|
 |-0------0------0------0------|

?ber den dächern
ist es so kalt
und so [C#]still[B]
ich schweig deinen namen
weil du ihn jetzt
nicht hören[C#] willst[B]
Der Abgrund der stadt
verschlingt jede
Träne, die[C#] fällt[B]
da unten ist nichts mehr,
was dich hier oben
noch [C#]hält
refarin:
Ich [F#]schrei' [F#]in d[E]ie N[C#]acht für dich
lass' [D#]mich nicht im Stich
spring [C#]nicht
[F#]Die L[F#]ichte[E]r f[C#]angen dich nicht
sie bet[D#]rügen dich
spring [C#]nicht
[F#]eri[F#]nne[E]r dic[C#]h
ab dich und [D#]mich[E]
die welt da unten zählt[C#] nicht
b[D#]itte spring nicht
in deinen augen
scheint alles sinnlos und [C#]leer[B]
der schnee fällt einsam
du spürst ihn schon lang nicht[C#] mehr[B]
irgendwo da drau?en
bist du verloren ge[C#]gangen[B]
du träumst von dem ende
um nochmal von vorn anzuf[C#]angen
refarin:
Ich [F#]schrei' [F#]in d[E]ie N[C#]acht für dich
lass' [D#]mich nicht im Stich
spring [C#]nicht
[F#]Die L[F#]ichte[E]r f[C#]angen dich nicht
sie bet[D#]rügen dich
spring [C#]nicht
[F#]eri[F#]nne[E]r dic[C#]h
ab dich und [D#]mich[E]
die welt da unten zählt[C#] nicht
[C#]bitte spring [D#]nicht
spring [E]nicht[F#]
brige:
 
 |----------------------------7--7--|
 |----------------------------------|
 |-9-9-9-9--11-11-11-11--9-8--9--8--|
 |-9-9-9-9--11-11-11-11--9-8--9--9--|
 |-7-7-7-7--9--9--9--9---7-6--7--7--|
 |----------------------------------|

ich weiss nicht wie lang
ich dich halten kann
ich weiss nicht wie lang
 
 |-------------------|
 |-------------------|
 |-------------------|
 |----11------9------| , C#
 |-------12-----11---|
 |--0--------0-------|

nimm meine [C#]hand
wir fangen nochmal [D#]an
[C#]spring nicht
refrain:
Ic[F#]h schrei[F#]' in[E] die[C#] Nacht für dich
lass' [D#]mich nicht im Stich
spring [C#]nicht
[F#]Die L[F#]ichte[E]r f[C#]angen dich nicht
sie bet[D#]rügen dich
spring [C#]nicht
[F#]eri[F#]nne[E]r dic[C#]h
ab dich und [D#]mich[E]
die welt da unten zählt[C#] nicht
[C#]bitte spring [D#]nicht
[E]spring [F#]nicht
und hält dich das auch[E] nicht[D#] zur[E]ück
dann [E]spring ich für dich
 
 |--------------------------|
 |--------------------------|
 |--------------------------|
 |---6------4-----6---------|
 |-----7------6---6---------|
 |-0------0-------4---------|

To play this song, u'll need to use these chords:
C#: B: D#: E: F#:
 
 |--------------------------|
 |--------------------------|
 |--------------------------|
 |-6----4----8----9----11---|
 |-6----4----8----9----11---|
 |-4----2----6----7----9----|

There migth be some chords that r not the rigth ones.
If u discover which of them is wrong, let me know.
Hope you like it!!
arcc
2007

Important: The song above is NOT stored on the Chordie server. The original song is hosted at www.azchords.com. Chordie works as a search engine and provides on-the-fly formatting. Chordie does not index songs against artists'/composers' will. To remove this song please click here.

Text color:
Chord color:
Chord grids: 
Font size:    
Page size: 

B C# D# E F#
Rate #1 of 4 versions

Jango Player

Login - add to songbook

SHARE PAGE  




You need to log in to post comments