Guitar Tabs, Chords and Lyrics
Update 25:10. 13:00. Site is back up running again. Songbooks are recovered. Woring on getting search back up..


Afterglow  Vertical Horizon

Vertical Horizon ‚?? ‚??Afterglow‚??
 
 Tunning: Half-Step Down (Eb-Bb-Gb-Db-Ab-Eb)

Intro Riff + Strumming Chords > 1x (E5*-Emaj7- E5*-Emaj7-)
 
 e------------------------------------------------------|
 b‚??-/5--7--4-5--‚??-/5--7--4-5----/9--5--0----/9‚??5-0-7----|
 g------------------------------------------------------|
 d------------------------------------------------------|
 a------------------------------------------------------|
 e------------------------------------------------------|

E5*-Emaj7
I wasn't sleeping
C#m*-C#m**
I wasn't dreaming
A5*
I kept my head down
A5* ‚?? Bsus4
I kept my head down
E5*-Emaj7
I wasn't laughing
C#m*-C#m**
I think I was crashing
A5*
'cause I always fall down
A5* ‚?? Bsus4
I always fall down
Now e[E5]verything I've ever known
just [C#5]fades into the Afterglow
this l[A5]ight surrounds you
and your light pulls me through
and e[E5]ven though the past is gone
I've [C#5]got you here I'm holding on
looko[A5]ut from below
and stay with me here in the Afterglow
Intro Riff + Strumming Chords > 1x (E5*-Emaj7- E5--|ch)Emaj7(/ch)-)
 
 e-----------------------------------------------------------------------------|
 b‚??-/5--7--4-5--‚??-/5--7--4-5---------------------------------------------------|
 g-----------------------------------------------------------------------------|
 d-----------------------------------------------------------------------------|
 a-----------------------------------------------------------------------------|
 e-----------------------------------------------------------------------------|

E5*-Emaj7
I wasn't breathing
C#m*-C#m**
my heart had stopped beating
A5*
frozen in time
A5* ‚?? Bsus4
frozen inside
Now e[E5]verything I've ever known
just [C#5]fades into the Afterglow
this l[A5]ight surrounds you
and your light pulls me through
and e[E5]ven though the past is gone
I've [C#5]got you here I'm holding on
looko[A5]ut from below
and stay with me here in the Afterglow
[Cmaj7]You saved me from this [G]hiding place
where I waste away
[Cmaj7]you change this winter'[G]s night into
the perfect summer's d[B]ay
E5*-Emaj7
Now I‚??m believing
C#m*-C#m**
The pain is receiding
A5*
you're like water to wine
A5* ‚?? Bsus4
water to wine
Now e[E5]verything I've ever known
just [C#5]fades into the Afterglow
this l[A5]ight surrounds you
and your light pulls me through
and a[E5]nywhere you want to go
I'll [C#5]take you there, just let me know
and st[A5]ay with me here
stay with me here
just stay with me here in the Afterglow
Intro Riff + Strumming Chords > 1x (E5*-Emaj7- E5--|ch)Emaj7(/ch)-)
 
 e-----------------------------------------------------------------------------|
 b‚??-/5--7--4-5--‚??-/5--7--4-5--5~-----------------------------------------------|
 g-----------------------------------------------------------------------------|
 d-----------------------------------------------------------------------------|
 a-----------------------------------------------------------------------------|
 e-----------------------------------------------------------------------------|

END!
_____________________________________
Chords
E E5* Emaj7 C#m* C#m** A5* Bsus4
 
 e-0----0----0----0----0----0----0----|
 b‚??0----0----0----0----0----0----0----|
 g-1----9----8----9----8----6----9----|
 d-2----9----9----9----9----7----9----|
 a-2----7----7----0----0----7----9----|
 e-0----0----0----9----9----5----7----|

[E5] [C#5] [A5] [Cmaj7] [G] [B]  
 
 e----------------3----3----7---------|
 b‚??---------------5----3----7---------|
 g-9----6---------4----4----8---------|
 d-9----6----7----5----5----9---------|
 a-7----4----7----3----5----9---------|
 e-----------5---------3----7---------|


Important: The song above is NOT stored on the Chordie server. The original song is hosted at www.azchords.com. Chordie works as a search engine and provides on-the-fly formatting. Chordie does not index songs against artists'/composers' will. To remove this song please click here.

Text color:
Chord color:
Chord grids: 
Font size:    
Page size: 

A5 B C#5 Cmaj7 E5 G
Rate #2 of 2 versions

Jango Player

Login - add to songbook

SHARE PAGE  




You need to log in to post comments