Guitar Tabs, Chords and Lyrics
Major upgrade!! After one year development the new version of Chordie is now online! Please give feedback.


Liza Jane  Vince Gill

Vince Gill - Liza Jane (solo)
*****************************************************************************************
bh = bend & hold r = release bend
p = pulloff h = hammer-on
b = bend / = slide up
\ = slide down br = bend & release
pbr = pre-bend & release x = dead note
~ = vibrato
*****************************************************************************************
[A]  
 
 E--------------------------------------------------------------------------------
 B-------2-----------------------------------------------------------2--5---------
 G--2-4bh-4r-p2-2p0-0--------------------------------------------2-4b-7b-7br-p5-7-
 D-------------4---4-4p2p0---0---------------------------5--------2------------7--
 A------------------------2h3-3p2p0---0--0-0--0-0-3h5/6/7-7\5-3h4-----------------
 E----------------------------------3b-3b---3b------------------------------------

[C] [D] [A] 
 
 E----5-------5-----------------------------6---------------------------------------
 B-----5-5-8bh-8r-p5----------------------8-------------5/7-7\5-3\1-----------------
 G--7b--------------8p7p5-5b--------5---7b-7-7pbr-p5-5\-5/7-7\5-4\2p0---0--------2--
 D-----------------------7--7-5\-----7-5------------7----------------3h4-4p2p0----2-
 A-------------------------------5/7------------------------------------------3h4---
 E----------------------------------------------------------------------------------

[C] [D] 
 
 E------0--3--5---7---9-----------9\7--9--9\7--9\--4/6-6-6-6-6-5------------------
 B----3b-6b-8b-10b-12b-12br-p10--10\8-10-10\8-10\--6/8-8-8-8-8-6------------------
 G--4b-------------------------11----9-------9------------------5-7b-5-5\---7-----
 D--------------------------------------------------------------------8-----7-----
 A-----------------------------------------------------------------------7/9--9-7-
 E--------------------------------------------------------------------------------

[A]  
 
 E----------10-14-----12--13---13-13-13-13-13-13------12--10---------------------------
 B--8/-9/10-10-13br-x-13--13bh-13-13-13-13-13-13r-12bh--12--12r-p10--10\8-10bh-10r-p8--
 G--9/10/11--------------------------------------------------------11----9-----------9-
 D-------------------------------------------------------------------------------------
 A-------------------------------------------------------------------------------------
 E-------------------------------------------------------------------------------------
 E---------------------|
 B--8\7-5-----8b~~~----|
 G-----8-7br-5---------|
 D---------------------|
 A---------------------|
 E---------------------|


Important: The song above is NOT stored on the Chordie server. The original song is hosted at www.azchords.com. Chordie works as a search engine and provides on-the-fly formatting. Chordie does not index songs against artists'/composers' will. To remove this song please click here.

Text color:
Chord color:
Chord grids: 
Font size:    
Page size: 

A C D
Rate #2 of 5 versions

Jango Player

Login - add to songbook

SHARE PAGE  




You need to log in to post comments