Guitar Tabs, Chords and Lyrics
Server problems seems to be fixed. Chordie has been experiencing problems with songs disappearing. These issues now seems to be fixed, but still verifying the fix. If you find anything strange, please email admin@chordie.com.


Always Be With You  Walking on Cars

 
 e|-------------------------------------------------------------------------------------------------------------|
 B|-----------------1------1--------------------------1-------1-------------------------------------------------|
 G|---------0---------------------------------0----------------------------------0---------------------0-----0h2|
 D|-----2-------2------2------2-----------2-------2------2--------2----------2-----------------2----2-----2-----|
 A|--0--------------------------------0----------------------------------------------------3--------------------|
 E|----------------------------------------------------------------------1-------------1------------------------|

Verse 1
If this is what you w[Am]ant then why didn't you say
You didn't wave goodb[Am]ye now you're gone away
I'll always be w[Fm]ith you
Yeah, I'll always be [Fm]with you
What you had in m[Am]ind didn't go to plan
First you learned to w[Am]alk, oh that's when you ran
You said I'll always be [Fm]with you
Yeah, I'll always be [Fm]with you
Pre-Chorus
Fm Gm'
Is it home somewhere you call your own,
Are you ha[Fm]ppy now? Just know
Chorus
That I'll always be wi[Am]th you (You're far from me)
Gm' Am
Yeah, I'll always be with you (You're far from me)
Gm'- Fm
With you (You're far from me)
Gm' Fm Gm'
Why did you take me with you? (You're far from me)
Am Gm'
Please don't you reach me I know that you can
Am Gm' Fm
If it's been for me I know that I'll always be with you (You're far from me)
Gm' Fm Gm'-
Yeah, I'll always be with you (You're far from me)
Verse 2
Send me a w[Am]ish or give me a sign
Even though you're g[Am]one I'll always call you mine
You said I'll always be [Fm]with you
Said I'll always be w[Fm]ith you
I saved you a s[Am]eat on the bigger* line *Not sure what he says here but lyric sites
Am say it's "bigger". I disagree so if you know
As it goes around about a thousand times what it is then please comment or mail me :)
You said I'll always be w[Fm]ith you
You said I'll always be w[Fm]ith you
Pre-Chorus
Fm Gm' Fm
Is it home somewhere you call your own,
Are you happy now? Just know
Chorus
That I'll always be wi[Am]th you (You're far from me)
Gm' Am
Yeah, I'll always be with you (You're far from me)
Gm' - Fm
With you (You're far from me)
Gm' Fm Gm'
Why did you take me with you? (You're far from me)
Am Gm'
Please don't you reach me I know that you can
Am Gm' Fm
If it's been for me I know that I'll always be with you (You're far from me)
Gm' Fm
Yeah, I'll always be with you (You're far from me)
Gm' Am
With you
Am - Gm' - Am - Fm
Bridge (Middle 8)
Gm' Fm
And it's alright you didn't shine
Am - Gm'
But I will always call you mine
Oh it's a lie you didn't sh[Fm]ine
Am-Gm'
I thought this would make things better
Gm'-Fm
I thought this would make things better
Am-Gm' Gm' - Fm
I thought this would make things better
Chorus
[Am]Please don't you reach me I know that you can
[Gm]If it's been for me I know that I'll always be w[Am]ith you (You're far from me)
Gm' Am
Yeah, I'll always be with you (You're far from me)
Gm' - Fm
With you (You're far from me)
Gm'- Fm
Why did you take me with you? (You're far from me)
Gm'-Am Gm'
Please don't you reach me I know that you can
Am Gm' Fm
If it's been for me I know that I'll always be with you (You're far from me)
Gm'' Fm
Yeah, I'll always be with you (You're far from me)
Gm'
With you
 
 Outro Am - Gm' - Am - Gm' - Fm - Gm' - Fm - Gm' - Am 

Yeah I'll always be with you
*****************************************************
Riff:
 
 e|--------------------------------------|
 B|--------------------------------------|
 G|---7b9br7-----7p5--7--5---------------|
 D|--------------------------7p5--7~-----|
 A|--------------------------------------|
 E|--------------------------------------|

Chords: *Play Pre-Chorus chords as full
Am Fm Gm Gm' (' represents half beat) Fm Gm
 
 e|---x-------------x------------x------------x------------------------------------x------------x---------------|
 B|---1-------------0(x)---------0------------x------------------------------------x------------x---------------|
 G|---2-------------2------------4------------0------------------------------------2------------4---------------|
 D|---2-------------0------------0------------0------------------------------------3------------5---------------|
 A|---0-------------3------------5------------5------------------------------------3------------5---------------|
 E|---x-------------1------------3------------3------------------------------------1------------3---------------|


Important: The song above is NOT stored on the Chordie server. The original song is hosted at www.azchords.com. Chordie works as a search engine and provides on-the-fly formatting. Chordie does not index songs against artists'/composers' will. To remove this song please click here.

Text color:
Chord color:
Chord grids: 
Font size:    
Page size: 

Am Fm Gm
Rate #1 of 1 versions

Login - add to songbook

SHARE PAGE  



You need to log in to post comments