Guitar Tabs, Chords and Lyrics
Server problems seems to be fixed. Chordie has been experiencing problems with songs disappearing. These issues now seems to be fixed, but still verifying the fix. If you find anything strange, please email admin@chordie.com.


With a Little Luck  Wings

INTRO
[A/B] [E] 
[1] [+] [2] [+] [3] [+] [4] [+] [1] [+] [2] [+] [3] [+] [4] [+] [1] [+] [2] [+] [3] [+] [4] [+] [1] [+] [2] [+] [3] [+] [4] [+]  
 
 e|0-----0---------|--------0-------|0---------------|----------------|
 B|2-----2---------|--------2-------|0---------------|----------------|
 G|2-----2---------|--------2-------|1---------------|----------------|
 D|2-----2---------|--------2-------|2---------------|----------------|
 A|2-----2---------|--------2-------|2---------------|----------------|
 E|----------------|----------------|0---------------|----------------|

[A/B] [A/D] [C#m7] [B7sus4] [(E)] 
[1] [+] [2] [+] [3] [+] [4] [+] [1] [+] [2] [+] [3] [+] [4] [+] [1] [+] [2] [+] [3] [+] [4] [+]  
 
 e|0-----0---------|----------------|----------------|
 B|2-----2---------|--------2-------|----------------|
 G|2-----2---------|--------2-----4-|--------2----[1]|
 D|2-----2---------|--------0-----6-|--------2----[2]|
 A|2-----2---------|--------------4-|--------2----[2]|
 E|----------------|----------------|-------------[1]|

LINK (in middle 8)
[Dmaj7] [E/D] [D] [A/D] [G/D] [A/D]  
[1] [+] [2] [+] [3] [+] [4] [+] [1] [+] [2] [+] [3] [+] [4] [+]  
 
 e|5-----4-----2---|--0-------------|
 B|2-----5-----3---|--2-----3---2---|
 G|2-----4-----2---|--2-----4---2---|
 D|0-----0-----0---|--0-----0---0---|
 A|----------------|----------------|
 E|----------------|----------------|
 ---------------------------------------------------------------------------

CHORDS
E-A-D-G-B-e
A/B x-2-2-2-2-0
B7sus4 x-2-4-2-2-2
E/G# 4-x-2-1-0-0
F#m/C# x-4-x-2-2-2
E/D x-x-0-4-5-4
A/D x-x-0-2-2-0
G/D x-x-0-4-3-x
 
 ---------------------------------------------------------------------------

INTRO
| A/B | % | E | % |
| A/B | A/B A/D | C#m7 B7sus4 |
VERSE
[E] With a little [E/G#]luck, we can help it [A]out
We can make this [A/B]whole damn thing work [E]out
[E] With a little [E/G#]love, we can lay it [A]down
Can't you feel the [A/B]town exploding?[C#m7]
MIDDLE 8
[F#m] There is no [C#7]end to what we can [F#m]do together[C#7]
[F#m] There is no [C#7]end, there is no [F#m/C#]end[C#7]
LINK (see above)
F#m C#7 | Dmaj7 E/D D | A/D G/D A/D |
The willow turns his back on inclement weather
| B7sus2 | % |
And if he can do it
(break) (build-up)
[B7sus2] We can do it,[A/B] just me and you
VERSE
[E] And a little [E/G#]luck, we can clear it [A]up
We can bring it [A/B]in for a landing,
[E] With a little [E/G#]luck, we can turn it [A]on
There can be no [A/B]misunderstanding[C#m7]
MIDDLE 8
[F#m] There is no [C#7]end to what we can [F#m]do together[C#7]
[F#m] There is no [C#7]end, there is no [F#m/C#]end[C#7]
LINK (see above)
F#m C#7 | Dmaj7 E/D D | A/D G/D A/D |
The willow turns his back on inclement weather
[B7sus2] We can do it,[A/B] just me and you
VERSE
[E] With a little [E/G#]push, we could set it [A]off
We can send it [A/B]rocketing skywards
[E] With a little [E/G#]love, we could [A]shake it up
Don't you feel the [A/B]comet exploding?[C#m7]
INTERLUDE
(With a [E]little luck
With a [E/G#]little luck
With a [A]little luck, a little luck, a [A/B]little luck)
VERSE (variation and coda)
[E] With a little [E/G#]luck we can lay it [A]down
Can't you feel the [A/B]town exploding
[E] With a little [E/G#]push we can set it [A]off
We can send it [A/B]rocketing skywards
[E] With a little [E/G#]luck we can [A]shake it up
Don't you feel that [A/D]comet ex[C#m7]ploding?
[B7sus4] Woah, [E]woah -[A/D] ooh ooh [C#m7]ooh ooh
| A/B | % | E

Important: The song above is NOT stored on the Chordie server. The original song is hosted at www.azchords.com. Chordie works as a search engine and provides on-the-fly formatting. Chordie does not index songs against artists'/composers' will. To remove this song please click here.

Text color:
Chord color:
Chord grids: 
Font size:    
Page size: 

A A/B A/D B7sus2 B7sus4 C#7 C#m7 D Dmaj7 E E/D E/G# F#m F#m/C# G/D
Rate #1 of 3 versions

Login - add to songbook

SHARE PAGE  




You need to log in to post comments