Guitar Tabs, Chords and Lyrics
Update 25:10. 13:00. Site is back up running again. Songbooks are recovered. Woring on getting search back up..


Hey Thomas  WIZO

Tuning : eadghe
Akkorde:
E gis A H
 
 |-0---4---5---7--
 |-0---4---5---7--
 |-1---4---6---8--
 |-2---6---7---9--
 |-2---6---7---9--
 |-0---4---5---7--

Der Rest sind einfach nur Powerchords . Bin zu faul die jetzt alle aufzuschreiben.
Intro
[-]Da[-]s [-]Intro kann man auf viele Arten spielen . Ich schreibe die auf die meiner Meinung nach am besten passt , wenn man alleine spielt.
E gis A H
 
 |-0-0-0-0--0-0-0-0--0-0-0-0--0-0-0-0-0-|
 |-5-5-5-5--4-4-4-4--5-5-5-5--4-5-7-5-4-|
 |-4-4-4-4--4-4-4-4--4-4-4-4--4-4-4-4-4-|
 |--------------------------------------|
 |--------------------------------------|
 |--------------------------------------|

Strophe 1
[-] [-] [-] [-] [-]  
Die Gitarre1 spielt die ganze Zeit diese Begleitung :
 
 |-----0------4------5--------7-7-7-|
 |-----0------4------5--------7-7-7-|
 |-----1------4------6--------8-8-8-|
 |-----2------6------7--------------|
 |-----2------6------7--------------|
 |-0-0----4-4----5-5----7-7-7-------|

PM . . . . . . . . .
E gis
Ich hab dich
seit [A]langem nicht ge[B]sehen
E gis
war überrascht
A H (Fill1)
auf einmal vor dir zu stehen
Fill1 :
 
 |--------|
 |-----5--|

|-4h6--6-|
 
 |--------|
 |--------|
 |--------|

E gis
Ich hätte dich
auch [A]beinahe nicht er[B]kannt
(H) E gis
doch der gro?e rote Stein
A H(hier keine Begleitung mehr nur Akkord spielen)
hat deinen Namen genannt
Bridge
[-] [-] [-]  
[Cis5] So viele [A5]Jahre ist es [Fis5]her
und seit [B5]dem ist viel [C5-Cis5]ge-schehen
[(Cis5)]Schei?e[A5] kommt und Schei?[Fis5]e geht
wir ham das [B5]Meiste schon [E5]gesehen
Chorus
[-] [-] [-]  
[(E5)] Du [Cis5]bist nicht [Gis5]hier
und [A5]trotzdem hast
[E5] du [Cis5]über[Gis5]-haupt gar
[B5]Nichts verpasst
[E5] Du [Cis5]bist nicht [Gis5]hier
und [A5]trotzdem hast
[E5] du [Cis5]über[Gis5]-haupt gar
[B5]Nichts verpaaaaaaaaaa...
Bridge2
[-](W[-]ie[-] I[-]ntro)
E gis A H
 
 |-0-0-0-0--0-0-0-0--0-0-0-0--0-0-0-0-0-|
 |-5-5-5-5--4-4-4-4--5-5-5-5--4-5-7-5-4-|
 |-4-4-4-4--4-4-4-4--4-4-4-4--4-4-4-4-4-|
 |--------------------------------------|
 |--------------------------------------|
 |--------------------------------------|

"...aaaaaahahast"
E gis A H
 
 |-0-0-0-0--0-0-0-0--0-0-0-0--0-0-0-0-0-|
 |-5-5-5-5--4-4-4-4--5-5-5-5--4-5-7-5-4-|
 |-4-4-4-4--4-4-4-4--4-4-4-4--4-4-4-4-4-|
 |--------------------------------------|
 |--------------------------------------|
 |--------------------------------------|

Strophe2
[-]Wi[-]ed[-]er[-] die Begleitung spielen
E gis A H
Neben dir ein altes Ehepaar
E gis A H (Fill2)
zu deinem Fü?en sitzt man wunderbar
Fill2:
 
 |-----------------|
 |-----4h5-7p5-4---|
 |-4h6-----------6-|
 |-----------------|
 |-----------------|
 |-----------------|

E gis A H
auf dem dicken fetten Protzestein
E gis A H(keine Begleitung mehr nur noch Akkord spielen)
von einem toten Pfaffenschwein
Bridge
[-] [-] [-]  
[Cis5] So viele [A5]Jahre ist es [Fis5]her
und seit [B5]dem ist viel [C5-Cis5]ge-schehen
[(Cis5)]Schei?e[A5] kommt und Schei?[Fis5]e geht
wir ham das [B5]Meiste schon [E5]gesehen
Chorus
[-] [-] [-]  
[(E5)] Du [Cis5]bist nicht [Gis5]hier
und [A5]trotzdem hast
[E5] du [Cis5]über[Gis5]-haupt gar
[B5]Nichts verpasst
[E5] Du [Cis5]bist nicht [Gis5]hier
und [A5]trotzdem hast
[E5] du [Cis5]über[Gis5]-haupt gar
[B5]Nichts verpaaaaaaaaaa...
Bridge2
[-](W[-]ie[-] I[-]ntro)
E gis A H
 
 |-0-0-0-0--0-0-0-0--0-0-0-0--0-0-0-0-0-|
 |-5-5-5-5--4-4-4-4--5-5-5-5--4-5-7-5-4-|
 |-4-4-4-4--4-4-4-4--4-4-4-4--4-4-4-4-4-|
 |--------------------------------------|
 |--------------------------------------|
 |--------------------------------------|

"...aaaaaahahast. Nichts verpaaahahhahahahast."
E gis A H
 
 |-0-0-0-0--0-0-0-0--0-0-0-0--0-0-0-0-0-|
 |-5-5-5-5--4-4-4-4--5-5-5-5--4-5-7-5-4-|
 |-4-4-4-4--4-4-4-4--4-4-4-4--4-4-4-4-4-|
 |--------------------------------------|
 |--------------------------------------|
 |--------------------------------------|

Bridge3
[-] [-] [-] [-]  
[Fis5] So viele Jahre ist es [A5]her
und seitdem ist viel [E5]geschehen
Schei?e kommt und Schei?[Gis5]e geht
wir ham, das meiste [G5]schon [Fis5]gesehen
[(Fis5)]Schei?e kommt und Schei?[A5]e bleibt
nichts als Schei?e weit und[B5] breit
A5 (Fill3)
Glück für den der nicht mehr lebt - Hey Thomas !
Fill3:
|-----|
|-----|
|-----|
|-2-2-|
|-2-2-|
|-0-0-|
PM . .
Chorus
[-] [-] [-]  
[(E5)] Du [Cis5]bist nicht [Gis5]hier
und [A5]trotzdem hast
[E5] du [Cis5]über[Gis5]-haupt gar
[B5]Nichts verpasst
[E5] Du [Cis5]bist nicht [Gis5]hier
und [A5]trotzdem hast
[E5] du [Cis5]über[Gis5]-haupt gar
[B5]Nichts verpaaaaaaaaaa...
Bridge4
[-](W[-]ie[-] I[-]ntro)
E gis A H
 
 |-0-0-0-0--0-0-0-0--0-0-0-0--0-0-0-0-0-|
 |-5-5-5-5--4-4-4-4--5-5-5-5--4-5-7-5-4-|
 |-4-4-4-4--4-4-4-4--4-4-4-4--4-4-4-4-4-|
 |--------------------------------------|
 |--------------------------------------|
 |--------------------------------------|

"...aaaaaahaahahaaaaaaaahaaaahast.
E gis A H
 
 |-0-0-0-0--0-0-0-0--0-0-0-0--0-0-0-0-0-|
 |-5-5-5-5--4-4-4-4--5-5-5-5--4-5-7-5-4-|
 |-4-4-4-4--4-4-4-4--4-4-4-4--4-4-4-4-4-|
 |--------------------------------------|
 |--------------------------------------|
 |--------------------------------------|

"Nichts verpaaahahahahahahst."
E gis A H
 
 |-0-0-0-0--0-0-0-0--0-0-0-0--0-0-0-0-0-|
 |-5-5-5-5--4-4-4-4--5-5-5-5--4-5-7-5-4-|
 |-4-4-4-4--4-4-4-4--4-4-4-4--4-4-4-4-4-|
 |--------------------------------------|
 |--------------------------------------|
 |--------------------------------------|

"Nichts verpaaahahahahahahst."
E gis A H
 
 |-0-0-0-0--0-0-0-0--0-0-0-0--0-0-0-0-0-|
 |-5-5-5-5--4-4-4-4--5-5-5-5--4-5-7-5-4-|
 |-4-4-4-4--4-4-4-4--4-4-4-4--4-4-4-4-4-|
 |--------------------------------------|
 |--------------------------------------|
 |--------------------------------------|

"Nichts verpasst.?berhaupt gar kein Stück verpasst."
Dann noch ein paar mal das Intro währrend noch ein Gitarre irgendwelche Riffs spielt die absolut nicht raushören konnte ...
Sorry!
Ende
[-] [-] [-]  
 
 |------------------------------------|
 |------------------------------------|
 |------------------------------------|
 |-2-2-13/6-6-6-13/7-7-7-13/9-9-9-9-9-|
 |-2-2-13/6-6-6-13/7-7-7-13/9-9-9-9-9-|
 |-0-0-11/4-4-4-11/5-5-5-11/7-7-7-7-7-|
 |--------------------------------------------0-|
 |--------------------------------4h5-7p5-4---0-|
 |----------------------------4h6-----------6-1-|
 |-2-2-13/6-6-6-13/7-7-7-13/9-----------------2-|
 |-2-2-13/6-6-6-13/7-7-7-13/9-----------------2-|
 |-0-0-11/4-4-4-11/5-5-5-11/7-----------------0-|


Important: The song above is NOT stored on the Chordie server. The original song is hosted at www.azchords.com. Chordie works as a search engine and provides on-the-fly formatting. Chordie does not index songs against artists'/composers' will. To remove this song please click here.

Text color:
Chord color:
Chord grids: 
Font size:    
Page size: 

A A5 B B5 E5 G5
Rate #1 of 1 versions

Jango Player

Login - add to songbook

SHARE PAGE  




You need to log in to post comments