Guitar Tabs, Chords and Lyrics
Major upgrade!! After one year development the new version of Chordie is now online! Please give feedback.


Every New Day  Five Iron Frenzy

Copyright 1997 5 Minute Walk Records
Tabbed by scheller sonnyschell@hotmail.com
The tabs for this song are ok, but are missing some of the lead guitar
stuff during the bridge and outro. NOTE: "/" mean rhythm slashes.
C#m x46654
[A]B [577655]799877
E x79997
F#m x 9 11 11 10 9
[G#]D [466544]x57775
E5 x799xx
B5 799xxx
C#5 9 11 11 x x x
A5 577xxx
G#5 466xxx
E5open 022xxx
F#5 244xxx
E/G# 476xxx
Intro (I'll just call this the Main Riff)
C#m A B E A 6x
 
 --4-4---5/7-x---x- -7-7---x-5-5-x-x--
 o-5-5-x-5/7-x-x-x- -9-9-x-x-5-5-x-x-o
 --6-6-x-6/8-x-x-x- -9-9-x-x-6-6-x-x--
 --6-6-x-7/9-x-x-x- -9-9-x-x-7-7-x-x--
 o-4--------------- -7-------7-------o
 ------------------ ------------------ 

Verses 1 & 2
Play Main Riff 8x
Pre-Chorus
[F#m] [E] [F#m] [E]  
[A] [E] [A] [G#]  
Chorus
Play Main Riff 8x
Verse 3
Play Main Riff 4x
then play Pre-Chorus, Chorus and go to Bridge
Bridge
[G#] [G#] [A] [A]  
[G#] [G#] [A] [B]  
Build-Up
C#m D 4x
Gtr 2 comes in after the first time and plays:
[C#m]  
 
 ------------------- ------------------
 o------------------ ------------------
 ------------------- ------------------
 ------------------- -----------2/6--6-
 o--4-4-4-4-4-4-4-4- --4--4-4-4--------
 ------------------- ------------------ 

D 3x
 
 ------------------ -------------------
 ------------------ ------------------o
 ------------------ -------------------
 ------------------ -----------4/7--7--
 --5-5-5-5-5-5-5-5- --5--5-5-5--------o
 ------------------ ------------------- 

[B] [A] 
[/] [/] 
 
 ----------------- ----------------- ----------------- -----------------
 ----------------- ----------------- ----------------- -----------------
 ----------------- ----------------- ----------------- -----------------
 ----------------- ----------------- ----------------- -----------------
 ----------------- ----------------- ----------------- -----------------
 -7-7-7-7-7-7-7-7- -7-7-7-7-7-7-7-7- -5-5-5-5-5-5-5-5- -5-5-5-5-5-5-5-5- 

[B] [A] [B] 
[/] [/] [/] 
 
 ----------------- ----------------- ----------------- -----------------
 ----------------- ----------------- ----------------- -----------------
 ----------------- ----------------- ----------------- -----------------
 ----------------- ----------------- ----------------- -----------------
 ----------------- ----------------- -7-7-7-7-7-7-7-7- -9-9-9-9-9-9-9-9-
 -7-7-7-7-7-7-7-7- -7-7-7-7-7-7-7-7- -5-5-5-5-5-5-5-5- -7-7-7-7-7-7-7-7- 

Outro
[E5] [B5] [G#5] [C#5] [B5] [A5] 
 
 ------------------ ----------------- ----------------- --------------------
 o----------------- ----------------- ----------------- --------------------
 --9-9-9-9-9-9-9-9- ----------------- ----------------- --------------------
 --9-9-9-9-9-9-9-9- -9-9-9-9-9-9-9-9- ----------------- --------------------
 o-7-7-7-7-7-7-7-7- -9-9-9-9-9-9-9-9- -6-6-6-6-6-6-6-6- -11-11-11-11-9-9--7-
 ------------------ -7-7-7-7-7-7-7-7- -4-4-4-4-4-4-4-4- --9--9--9--9-7-7--5- 

A5 E5open F#5 B5
 
 ------------------- ----------------- ----------------- -------------------
 ------------------- ----------------- ----------------- ------------------o
 ------------------- ----------------- ----------------- -------------------
 -(7)-7-7-7-7-7-7-7- -2-2-2-2-2-2-2-2- -4-4-4-4-4-4-4-4- -9-9-9-9-9-9-9-9---
 -(7)-7-7-7-7-7-7-7- -2-2-2-2-2-2-2-2- -4-4-4-4-4-4-4-4- -9-9-9-9-9-9-9-9--o
 -(5)-5-5-5-5-5-5-5- -0-0-0-0-0-0-0-0- -2-2-2-2-2-2-2-2- -7-7-7-7-7-7-7-7--- 

[E5] [B5] [G#] [C#5] [B5] [A5] 
[/] [/] [/] [/] [/] [/] [/] [/] [/] [/] [/] [/] [/] [/] [/] [/] [/] [/] [/] [/] [/] [/] [/] [/] [/] [/] [/] [/] [/] [/] [/] 
 
 ------------------ ----------------- ----------------- -----------------
 o----------------- ----------------- ----------------- -----------------
 --9-9-9-9-9-9-9-9- -8-8-8-8-8-8-8-8- -8-8-8-8-8-8-8-8- -9-9-9-9-9-11--9-
 ------------------ ----------------- ----------------- -----------------
 o-7-7-7-7-7-7-7-7- -6-6-6-6-6-6-6-6- -6-6-6-6-6-6-6-6- -7-7-7-7-7--9--7-
 ------------------ ----------------- ----------------- ----------------- 

1st ending (play this and then then the section above and
then skip to the 2nd ending)
[A5] [E/G#]  
[/] [/] [/] [/] [/] [/] [/] [/] [/] [/] [/] [/] [/] [/] [/] 
 
 ---------------- --------------------
 ---------------- --------------------
 --9-9-9-9-9-9-9- -9-9-9-9-9-/11--/13-
 ---------------- --------------------
 --7-7-7-7-7-7-7- -7-7-7-7-7--/9--/11-
 ---------------- -------------------- 

[F#5] [B5]  
[/] [/] [/] [/] [/] [/] [/] [/] [/] [/] [/] [/] [/] [/] [/] [/] 
 
 ----------------------- ---------------------
 ----------------------- --------------------o
 --13-14-14-13-13-11-11- -9-9-11-11-8-8-8-8---
 ----------------------- ---------------------
 --11-12-12-11-11--9--9- -7-7--9--9-6-6-6-6--o
 ----------------------- --------------------- 

2nd ending
[A5] [E/G#] [F#5] [B5] 
[/] [/] [/] [/] [/] [/] [//] [/] [/] [/] [/] [/] [/] [/] [/] [/] [/] [/] [/] [/] [/] [/] [/] [/] [/] [/] [/] [/] [/] [/] [/] 
 
 ----------------- ----------------- ----------------- ------------------
 ----------------- ----------------- ----------------- ------------------
 -9-9-9-9-9-11--9- ---9-9-9-9-9-9-9- -6-6-6-6-6-6-6-6- -4-4-4-4-4-4-4-4--
 ----------------- ----------------- ----------------- ------------------
 -7-7-7-7-7--9--7- ---7-7-7-7-7-7-7- -4-4-4-4-4-4-4-4- -2-2-2-2-2-2-2-2--
 ----------------- ----------------- ----------------- ------------------ 

E5 B5 G#5 C#5 B5 A5 ) play this
A5 E/G# F#5 B5 ) twice
end on E5
Generated using Power Tab Editor by Brad Larsen - http://www.power-tab.net

Important: The song above is NOT stored on the Chordie server. The original song is hosted at www.christianguitar.org. Chordie works as a search engine and provides on-the-fly formatting. Chordie does not index songs against artists'/composers' will. To remove this song please click here.

Text color:
Chord color:
Chord grids: 
Font size:    
Page size: 

A A5 B B5 C#5 C#m E E/G# E5 F#5 F#m G# G#5
Rate #1 of 5 versions

Jango Player

Login - add to songbook

SHARE PAGE  




You need to log in to post comments