Guitar Tabs, Chords and Lyrics
Server problems seems to be fixed. Chordie has been experiencing problems with songs disappearing. These issues now seems to be fixed, but still verifying the fix. If you find anything strange, please email admin@chordie.com.


After Today  Sanctus Real

Say It Loud
2003
 

Pre Chorus
[D] [C#m] [F#m] [A]  
Chorus
[C#m] [D#] [F#] [C#m]  
Repeat Begining
Repeat Pre Chorus
Repeat Chorus
Bridge
Palm muted
[C#m] [G#] [A] [F#m]  
again listen to cd for exact # of times
 
 -----------------------
 -----------------------
 -----------------------
 -15-16---16-16-15---15-
 ------16---------16----
 -----------------------

^^^^^^^^^^lead part^^^^
repeat chorus
play bridge over solo
 
 -14-13-----------------------------------------14-13----13--------------
 -----------------------------------------------------16----16-14--------
 -------13/18--------------13-------------13----------------------15-13--
 --------------15-16-15-16----15-16-15-16------x2--------------------------
 -------------------------------------------16---------------------------
 ------------------------------------------------------------------------
 ---------------------------------------------------------
 ---------------------------------------------------------
 -10/13-13/17-18/15-13/15---------------------------------
 ---------------------------------------------------------
 ---------------------------------------------------------
 ---------------------------------------------------------
 -----------------------------------------
 -----------------------------------------
 ------------13-------------13-----
 -15-16-15-16----15-16-15-16------x2-
 -------------------------------16---
 ------------------------------------------------
 -14-13----13-------14-13----13------
 -------16----16-14-------16---------
 -------------------------------13/18
 ------------------------------------
 ------------------------------------
 ------------------------------------

Okay this is my first tab so don't rag on me too much
Please place comments and stuff
~Jake the Snake~

Important: The song above is NOT stored on the Chordie server. The original song is hosted at www.christianguitar.org. Chordie works as a search engine and provides on-the-fly formatting. Chordie does not index songs against artists'/composers' will. To remove this song please click here.

Text color:
Chord color:
Chord grids: 
Font size:    
Page size: 

A C#m D D# F# F#m G#
Rate #1 of 1 versions

Jango Player

Login - add to songbook

SHARE PAGE  




You need to log in to post comments