Guitar Tabs, Chords and Lyrics
Update 25:10. 13:00. Site is back up running again. Songbooks are recovered. Woring on getting search back up..


All Alone  Kutless

Drop C# Tuning C#-G#-C#-F#-A#-D#
Intro
(No Guitar)
Verse
(No Guitar for the first part of the verse)
Then...
 
 F#[-2-2--0-----2-2--0-----2-2--0-----0------]
 C#[---------4----------4----------4----4--0-]x2

Chorus
 
 F#[-4-4----------------4-4----------------4-4----------------4-4--------------]
 C#[-4-4--5-5--7-7-7-7--4-4--5-5--7-7-7-7--4-4--5-5--0-0-7-7--4-4--5-5--7-7-7-7]
 G#[-2-2--5-5--7-7-7-7--2-2--5-5--7-7-7-7--2-2--5-5--0-0-7-7--2-2--5-5--7-7-7-7]
 C#[------5-5--7-7-7-7-------5-5--7-7-7-7-------5-5--0-0-7-7-------5-5--7-7-7-7]

Post-Chorus
 
 F#[-2-2--0-----2-2--0-----2-2--0-----0------]
 C#[---------4----------4----------4----4--0-]

Verse 2
(Same as Verse 1)
Chorus
Post-Chorus 2
 
 F#[-4--4------------------]
 C#[-4--4--5--5--0--0--7-7-]
 G#[-2--2--5--5--0--0--7-7-]
 C#[-------5--5--0--0--7-7-]x2

Bridge
[Bm]The[D]n.[Bm]..[D]
 
 C#[-2-2--2-5--2-2--2-5--7-7--7-0--7-7--7-0-]
 G#[-2-2--2-5--2-2--2-5--7-7--7-0--7-7--7-0-]x2
 C#[-2-2--2-5--2-2--2-5--7-7--7-0--7-7--7-0-]

Chorus
Outro
 
 F#[-4--4------------------]
 C#[-4--4--5--5--0--0--7-7-]
 G#[-2--2--5--5--0--0--7-7-]
 C#[-------5--5--0--0--7-7-]x4

2004 Thirsty Moon River Publishing (ASCAP)/Indecisive Music Publishing (ASCAP)
Spinning Audio Vortex (BMI)/Solid People Songs (BMI).
Tabbed by Adam K

Important: The song above is NOT stored on the Chordie server. The original song is hosted at www.christianguitar.org. Chordie works as a search engine and provides on-the-fly formatting. Chordie does not index songs against artists'/composers' will. To remove this song please click here.

Text color:
Chord color:
Chord grids: 
Font size:    
Page size: 

Bm D
Rate #1 of 2 versions

Jango Player

Login - add to songbook

SHARE PAGE  



You need to log in to post comments