Guitar Tabs, Chords and Lyrics
Update 25:10. 13:00. Site is back up running again. Songbooks are recovered. Woring on getting search back up..


Perspectives  Kutless

Drop C# Tuning C#-G#-C#-F#-A#-D#
(All chords are just the positions from the tuning)
Intro
[G] [C] [Em] [C] [G] [C] [Em]  
 
 A#[-12-------19-15-20----12-------19-15-20--15--12-------19-15-20----12--------
 F#[-----12-------------------12---------------------12-------------------12----
 C#[---12-------------------12---------------------12-------------------12------

[C]  
 
 19-15-20--10--12-]
 -----------------]
 -----------------]

Verse
G C Em C x2
Then
[Am] [C]  
Chorus
 
 F#[----------------5----------------]
 C#[-5----0----3----5----5----0----3-]
 G#[-5----0----3----3----5----0----3-]
 C#[-5----0----3---------5----0----3-]

Intro
Verse
Chorus
Bridge
 
 F#[----7--5-------7--5-------7--5------]
 C#[-2--7--5----2--7--5----2--7--5----3-]
 G#[-2--5--3----2--5--3----2--5--3----3-]
 C#[-2----------2----------2----------3-]

Chorus 2
[G] [D] [F] [C]  
[G] [D] [F]  
Chorus
End on
C#[-5-]
G#[-5-]
C#[-5-]
2004 Thirsty Moon River Publishing (ASCAP)/Indecisive Music Publishing (ASCAP)
Spinning Audio Vortex (BMI)/Solid People Songs (BMI).
Tabbed by Adam K

Important: The song above is NOT stored on the Chordie server. The original song is hosted at www.christianguitar.org. Chordie works as a search engine and provides on-the-fly formatting. Chordie does not index songs against artists'/composers' will. To remove this song please click here.

Text color:
Chord color:
Chord grids: 
Font size:    
Page size: 

Am C D Em F G
Rate #1 of 2 versions

Jango Player

Login - add to songbook

SHARE PAGE  




You need to log in to post comments