Guitar Tabs, Chords and Lyrics
Major upgrade!! After one year development the new version of Chordie is now online! Please give feedback.


Word of God Speak  MercyMe

Title: Word of God Speak
Album: Spoken For
Artist: MercyMe
Tabbed by: Jason
*Explanation for submiting this tab: I saw that
you'll didn't have the song arpeggiated so I
thought it would be cool to submit it here*
This song is originally composed and played on piano
but I thought it was such a beautiful song why
not transpose it to guitar.
I suggest listening to the song to get the timing,
and how many times you need to repeat stuff right.
Intro
 
 e -----0-------1-------0-------1-------0-------1-------0-------1----
 B -1---1---1---1---1---1---1---1---1---1---1---1---1---1---1---1----
 G ---0---0---0---0---0---0---0---0---0---0---0---0---0---0---0---0--
 D ------------------------------------------------------------------
 A -3---------------3------------------------------------------------
 E ---------------------------------1---------------1---------------- 

Verses (repeat as many times necessary)
 
 e -----0-------1-------0-------1-------0-------1-------0-------1----
 B -1---1---1---1---1---1---1---1---1---1---1---1---1---1---1---1----
 G ---0---0---0---0---0---0---0---0---0---0---0---0---0---0---0---0--
 D ------------------------------------------------------------------
 A -3---------------3------------------------------------------------
 E ---------------------------------1---------------1---------------- 

Verses (alternative, if you
prefer struming here are the notes)
C/E(2x) Fmaj7(add9)(2x) 2x = hold for two measures(beats)
 
 e -0------0----------
 B -1------1----------
 G -0------0----------
 D -2------3----------
 A -3------3----------
 E -0------1---------- 

Chorus
[C/G] [G]  
[A#] [Fadd9/A]  
[C/G] [G]  
[A#] [Fadd9/A] [C]  
[C/G] [G] [A#] [Fadd9/A]  
 
 e --0---3---1----3------
 B --1---3---3----1------
 G --0---0---3----2------
 D --2---0---3----3------
 A --3---2---x----0------
 E --3---3---x----x------ 

Enjoy, any questions send to Free_to_run03@yahoo.com.

Important: The song above is NOT stored on the Chordie server. The original song is hosted at www.christianguitar.org. Chordie works as a search engine and provides on-the-fly formatting. Chordie does not index songs against artists'/composers' will. To remove this song please click here.

Text color:
Chord color:
Chord grids: 
Font size:    
Page size: 

A# C C/G Fadd9/A G
Rate #1 of 19 versions

Login - add to songbook

SHARE PAGE  



You need to log in to post comments