Guitar Tabs, Chords and Lyrics
Server problems seems to be fixed. Chordie has been experiencing problems with songs disappearing. These issues now seems to be fixed, but still verifying the fix. If you find anything strange, please email admin@chordie.com.


A Flowery Song  Five Iron Frenzy

 
 -------------------------------------------------

A Flowery Song
by: Five Iron Frenzy
CD: Upbeats and Beatdowns
tab: Joel Gompert (jesusfreak57@hotmail.com)
copyright: 1996 5 Minute Walk Records
 
 -------------------------------------------------

BASS INTRO:
 
 -------------------------- --------------------------
 -------------------------- --------------------------
 4 ------1-----1------------- -------------------------o
 4 ---2-----------2--1-----1- -------------1-----4--1--o
 ---------------------2---- -0--4-----4-----2---------
 -------------------------- -------------------------- 

1 & 2 & 3 & 4 & 1 & 2 & 3 & 4 &
RIFF 1:
 
 -------------------------
 -------------------------
 -------------------------
 -------------------------
 ------9------------------
 ---7-----9--6--9--7--6--- 

BASS INTRO
*After the first time through, the guitar (without distortion)
*comes in with:
E A F#m B (muted, 5x)
*Then kick in the distortion with:
E5 C#5 F#5 A5-B5 (4x)
VERSE 1 (same thing as the muted guitar in the intro):
[E] [A] [F#m] [B] [E] [A] [F#m] [B] 
[E] [A] [F#m] [B]  
[E] [A] [F#m] [B] 
[E] [A] [F#m] [B] [E] [A] [F#m] [B] 
[E] [A] [F#m] [B]  
[E] [A] [F#m] [B]  
BRIDGE (continue same chords and rhythym):
[E] [A] [F#m] [B] 
[E] [A] [F#m] [B] 
[E] [A] [F#m] [B] 
[E] [A] [F#m] [B] [E5] 
(The heavy distortion starts with that last E5.)
CHORUS (same thing as the distorted guitar in the intro):
[C#5] [F#5] [A5] [B5] [E5] 
[C#5] [F#5] [A5] [B5] [E5] 
[C#5] [F#5] [A5] [B5] [E5]  
[C#5] [F#5] [A5-B5] [E5]  
E5 C#5 F#5 A5-B5 (4x)
VERSE 2:
[E] [A] [F#m] [B] [E] [A] [F#m] [B] 
[E] [A] [F#m] [B]  
[E] [A] [F#m] [B] 
[E] [A] [F#m] [B] [E] [A] [F#m] [B] 
[E] [A] [F#m] [B]  
[E] [A] [F#m] [B] 
BRIDGE
CHORUS
A5-B5 Riff 1 (Repeat chords & riff 3x)
[A5-B5]  
*FLOWERY PART:
 
 E---7--------7-- --------7----- --------4----- --5--------5--
 B------7-------- --9----------- --6----------- -----5--------
 G---------8----- -----------9-- -----------6-- --------6-----
 D--------------- -----9-------- -----6-------- --------------
 A--------------- -------------- -------------- --------------
 E--------------- -------------- -------------- -------------- 

(That's: B-E-C#-A Play it 4x)
[A-B]  
E A F#m B (4x)
CHORUS
That's the whole song. I tabbed this based on the demo song
from the 5 Minute Walk "Fall Sampler '96," so it might not be
exactly right. If you have any corrections, questions, comments,
email at jesusfreak57@hotmail.com

Important: The song above is NOT stored on the Chordie server. The original song is hosted at www.christianguitar.org. Chordie works as a search engine and provides on-the-fly formatting. Chordie does not index songs against artists'/composers' will. To remove this song please click here.

Text color:
Chord color:
Chord grids: 
Font size:    
Page size: 

A A5 B B5 C#5 E E5 F#5 F#m
Rate #1 of 5 versions

Login - add to songbook

SHARE PAGE  




You need to log in to post comments