Guitar Tabs, Chords and Lyrics
Major upgrade!! After one year development the new version of Chordie is now online! Please give feedback.


New Medicines   Dead Poetic

 
 G[---4-6--9--6----4-6--9--6----4-6--9--6----4-6--9--6--]
 D[------7--9--7------7--9--7------7--9--7------7--9--7-]
 A[-----------------------------------------------------]
 D[-4------------4------------0------------0------------]

 


 P.M.....................................................


 


 Verse 1


 

 
 G[--------------------999---------444---------444-]
 D[-4-4-4-4----4-4-4-4-xxx-0-0-0-0-xxx-0-0-0-0-xxx-]
 A[-4-4-4-4----4-4-4-4-777-0-0-0-0-222-0-0-0-0-222-]x4
 D[-4-4-4-4----4-4-4-4-----0-0-0-0-----0-0-0-0-----]

 


 


 Chorus 1


 

 
 G[-11---6----9----6----11---6----9----6-]
 D[-11---6----9----6----11---6----9----6-]
 A[-9----4----0----4----9----4----0----4-]
 D[-9----4----0----4----9----4----0----4-]

 


 


 Verse 2


 

 
 G[-6-6--6-6--6-6--6-6-4-2-2--6-6--6-6--6-6--6-6-]
 D[-6-6--6-6--6-6--6-6-4-2-2--7-7--7-7--7-7--7-7-]
 A[-4-4--4-4--4-4--4-4-2-0-0--0-0--0-0--0-0--0-0-]x4
 D[-4-4--4-4--4-4--4-4-2-0-0--0-0--0-0--0-0--0-0-]

 


 


 Chorus 2


 

 
 G[-11-11-1111111111111111------6-]
 D[-11-11--x-x-x-x-x-x-x-x-0----6-]
 A[-9--9---9-9-9-9-9-9-9-9-0----4-]x4
 D[-9--9-------------------0----4-]

 


 


 Verse 3


 

 
 G[--------------------999---------444---------444-]
 D[-4-4-4-4----4-4-4-4-xxx-0-0-0-0-xxx-0-0-0-0-xxx-]
 A[-4-4-4-4----4-4-4-4-777-0-0-0-0-222-0-0-0-0-222-]x3
 D[-4-4-4-4----4-4-4-4-----0-0-0-0-----0-0-0-0-----]
 G[-6-6--6-6--6-6--6-6-4-2-2--6-6--6-6--6-6--6-6-]
 D[-6-6--6-6--6-6--6-6-4-2-2--7-7--7-7--7-7--7-7-]
 A[-4-4--4-4--4-4--4-4-2-0-0--0-0--0-0--0-0--0-0-]x2
 D[-4-4--4-4--4-4--4-4-2-0-0--0-0--0-0--0-0--0-0-]

 


 


 Chorus 2


 


 Bridge


 

 
 G[---------999---------766--------9p7------------9p7-----]
 D[-4-4-4-4-xxx-4-4-4-4-xxx-0-0-0-0---9p7--0-0-0-0---9p7--]
 A[-4-4-4-4-777-4-4-4-4-544-0-0-0-0------9-0-0-0-0------9-]x2
 D[-4-4-4-4-----4-4-4-4-----0-0-0-0--------0-0-0-0--------]
 G[---------9-9-9---------7-6-6--------9p7------------9p7-----]
 D[-4-4-4-4-x-x-x-4-4-4-4-x-x-x-0-0-0-0---9p7--0-0-0-0---9p7--]
 A[-4-4-4-4-7-7-7-4-4-4-4-5-4-4-0-0-0-0------9-0-0-0-0------9-]x2
 D[-4-4-4-4-------4-4-4-4-------0-0-0-0--------0-0-0-0--------]

 


 


 Chorus 2


 


 Outro


 

 
 G[-6-6--6-6--6-6--6-6-4-2-2--6-6--6-6--6-6--6-6-]
 D[-6-6--6-6--6-6--6-6-4-2-2--7-7--7-7--7-7--7-7-]
 A[-4-4--4-4--4-4--4-4-2-0-0--0-0--0-0--0-0--0-0-]x.....???
 D[-4-4--4-4--4-4--4-4-2-0-0--0-0--0-0--0-0--0-0-]


Important: The song above is NOT stored on the Chordie server. The original song is hosted at www.christianguitar.org. Chordie works as a search engine and provides on-the-fly formatting. Chordie does not index songs against artists'/composers' will. To remove this song please click here.

This song is displayed as text-only. Transposing and tuning is only available for chordpro-songs.
Rate #1 of 3 versions

Jango Player

Login - add to songbook

SHARE PAGE  




You need to log in to post comments