Guitar Tabs, Chords and Lyrics
Update 25:10. 13:00. Site is back up running again. Songbooks are recovered. Woring on getting search back up..


Take Me In  Kutless

"Take Me In" - Kutless
Album: "Strong Tower"
Author: Dave Browning
1987 Glory Alleluia Music.
(Admin. by Tempo Music Publications, Inc.)
All rights reserved. International copyright secured.
CCLI song #19272
Tabbed By Rob Price Tragic Comic Studios, comments or questions
can be sent to rob@tcstudios.com
Drop C# Tuning
[C#] [G#] [C#] [F#] [A#] [d#]  
Intro: (This isn't perfect, but it's enough to get ya started)
Guitar 1 (Medium Distortion)
[F#] [D] [E] [D] [E]  
 
 d# [-------------------------------------------------------------]
 A# [---6/8-------------------------6/8---------------------------]
 F# [-7---------------------------7---------------7-7 ~ ----------]
 C# [-------------------------------------------------------------] x 2
 G# [-------------------------------------------------------------]
 C# [-------------------------------------------------------------]

Guitar 2 (Distortion and Chorus)
[F#] [D] [E] [D] [E]  
 
 d# [-------------------------------------------------------------]
 A# [-------------------------------------------------------------]
 F# [----------------------------------222-0----------------------]
 C# [---------8-8-7-5-5-5----3/5 53-------0-------3/5\3-----------] x 2
 G# [-------5--5-----5--------------------------------------------]
 C# [------5-----------5-5\1---------33-------1-1-----------------]

For the verse, just hit and miss with the intro riffs, and add the
Acoustic Guitar part that I've listed at the bottom if you desire.
Chorus
[F#] [E] [D] [E] [F#] [D] [E]  
 
 d# [--xxxxxxxx--xxxxxxxx--xxxx-xxxx-xxxx-xx-xx-------------------]
 A# [--xxxxxxxx--xxxxxxxx--xxxx-xxxx-xxxx-xx-xx-------------------]
 F# [--xxxxxxxx--xxxxxxxx--xxxx-xxxx-xxxx-xx-xx-------------------]
 C# [--55555555--33333333--1111-3333-5555-11-33-------------------]
 G# [--55555555--33333333--1111-3333-5555-11-33-------------------]
 C# [--55555555--33333333--1111-3333-5555-11-33-------------------]

This is the Acoustic Guitar part I've added for extra fullness. It
seems that I can hear some light strumming of an acoustic in their
recording anyhow, so use it if you wish.
Capo on 3, Tune 1/2 Step down
Chord formations: (These aren't the actual Chord Names)
[Em] [C] [D]  
 
 d# [--0---x---x--]
 A# [--0---1---3--]
 F# [--0---0---2--]
 C# [--2---2---0--]
 G# [--2---3---x--]
 D# [--0---x---x--]

Verse:
[Em] [C]  
[D] [C] [D]  
[Em] [C]  
[D] [C] [D]  
Chorus:
[Em] [D]  
[C] [D] [Em] [C] [D]  
[Em] [D]  
[C] [D] [Em]  
This is not 100% perfect, but it's extremely close. I've only heard
the song 3 or 4 times, and I don't have the CD to sit down with and
work everything out perfectly. God Bless and enjoy, Rob.

Important: The song above is NOT stored on the Chordie server. The original song is hosted at www.christianguitar.org. Chordie works as a search engine and provides on-the-fly formatting. Chordie does not index songs against artists'/composers' will. To remove this song please click here.

Text color:
Chord color:
Chord grids: 
Font size:    
Page size: 

A# C C# D E Em F# G#
Rate #1 of 16 versions

Jango Player

Login - add to songbook

SHARE PAGE  



You need to log in to post comments