Guitar Tabs, Chords and Lyrics
Server problems seems to be fixed. Chordie has been experiencing problems with songs disappearing. These issues now seems to be fixed, but still verifying the fix. If you find anything strange, please email admin@chordie.com.


All I Want   Sanctus Real

 
 eb-2p0-2p0-2p0-3p2p0--
 bb------------------3-
 gb--------------------
 db--------------------
 ab--------------------
 db--------------------

 


 


 intro 2


 


 eb-


 [bb-]gb-


 

 
 db-7-7-7-7-7-7-7-7-7777-2-2-2-2-2-2-2-2-2222-5-5-5-5-5-5-5-5-5555
 ab-5-5-5-5-5-5-5-5-5555-2-2-2-2-2-2-2-2-2222-5-5-5-5-5-5-5-5-5555
 db-0-0-0-0-0-0-0-0-0000-2-2-2-2-2-2-2-2-2222-5-5-5-5-5-5-5-5-5555

 


 


 verse


 


 

 
 eb----------------------
 bb----------------------
 gb----------------------
 db-2h4-2h4-2-2h4-2h4-4h5
 ab----------------------
 db----------------------

 


 


 pre-chorus


 


 eb-


 bb-strumming not shown


 gb-


 [db-7-5]  


 [ab-5-5]db-0-5


 


 chorus


 


 eb-


 bb-strumming not shown


 gb-


 [db-7-5-2-5]  


 [ab-5-5-2-5]db-0-5-2-5


 


 repeat verse


 


 repeat pre chorus


 


 repeat chorus


 


 solo part


 


 

 
 eb--------------------------------------------------------half step bend
 bb-------------------------------------8888-x-8888-x-8888-9b-9hb-9hb--
 gb-7777777777777777-6666-x-6666-x-6666--------------------------------
 db--------------------------------------------------------------------
 ab--------------------------------------------------------------------
 db--------------------------------------------------------------------

 


 backup guitar play chorus(not so sure, chords are a little diff)


 


 bridge


 pm...............................


 

 
 eb------------------------------------------------------------------
 bb------------------------------------------------------------------
 gb-4-4-4-4-4-4-4-4--------------------------------------------------
 db-4-4-4-4-4-4-4-4-7-7-7-7-7-7-7-7-5-5-5-5-5-5-5-5-2-2-2-2-2-2-2-2-2
 ab-2-2-2-2-2-2-2-2-5-5-5-5-5-5-5-5-5-5-5-5-5-5-5-5-2-2-2-2-2-2-2-2-2
 db-----------------0-0-0-0-0-0-0-0-5-5-5-5-5-5-5-5-2-2-2-2-2-2-2-2-2

 


 


 chorus


 


 altered chorus at end


 


 

 
 eb-----------------------------------------------------------------------
 bb-----------------------------------------------------------------------
 gb-----------------------------------------------------------------------
 db-7-7--7-7--5-5--5-5--2-2-2-2-2-2-2-2-5-5-5-5-5-5-5-5-7-7--7-7--5-5--5-5
 ab-5-5--5-5--5-5--5-5--2-2-2-2-2-2-2-2-5-5-5-5-5-5-5-5-5-5--5-5--5-5--5-5
 db-0-0--0-0--5-5--5-5--2-2-2-2-2-2-2-2-5-5-5-5-5-5-5-5-0-0--0-0--5-5--5-5
 eb-----------------------------------------
 bb-----------------------------------------
 gb----------------------------------------7
 db-10-10-10-10-10-10-10-10-10-10-0-0-0-0--7
 ab-10-10-10-10-10-10-10-10-10-10-0-0-0-0--5
 db-10-10-10-10-10-10-10-10-10-10-0-0-0-0--0


Important: The song above is NOT stored on the Chordie server. The original song is hosted at www.christianguitar.org. Chordie works as a search engine and provides on-the-fly formatting. Chordie does not index songs against artists'/composers' will. To remove this song please click here.

This song is displayed as text-only. Transposing and tuning is only available for chordpro-songs.
Rate #1 of 1 versions

Jango Player

Login - add to songbook

SHARE PAGE  




You need to log in to post comments