Guitar Tabs, Chords and Lyrics
Update 25:10. 13:00. Site is back up running again. Songbooks are recovered. Woring on getting search back up..


Smile  Kutless

Copyright 2006 BEC Records
Tuning= D#-G#-C#-F#-A#-D#
Chords relative to tuning
h=hammer on
s=slide
Intro
Gtr. 1
 
 D#[----0-------0-------0--------0--------]
 A#[--1---1---3---1---1---1----1---1------]
 F#[-2-2---2-0-0---0--------0--------0----]x2
 C#[-----------------3-3------3-3---------]

Gtr. 2
 
 A#[-10----------------10---------------------]
 F#[--9-----------------9----------9----------]
 C#[-10---7h9-10--9-7--10---7h9-10----9-5--7--]

Verse 1
Gtr. 1
 
 D#[----0-------0-------0--------0--------]
 A#[--1---1---3---1---1---1----1---1------]
 F#[-2-2---2-0-0---0--------0--------0----]x5
 C#[-----------------3-3------3-3---------]

Pre-Chorus
[G] [F] [C] [G]  
[Am] [F] [G]  
Chorus
Gtr. 2
[F] [C] [G] [Am]  
[F] [C] [G]  
[F] [C] [G] [Am]  
[F]Gt[C]r.[G] 1
 
 D#[-----------5------7------]
 A#[-5s6-6-5-8--8---8---8----]
 F#[-5s5-5--------0----------]
 D#[-----------5------7-8-7-5-7----]
 A#[-5s6-6-5-8--8---8---8-8-8-8----]
 F#[-5s5-5--------0----------------]
 D#[-----------5------7------]
 A#[-5s6-6-5-8--8---8---8----]
 F#[-5s5-5--------0----------]
 D#[-----------5------7-8-7-5-7----]
 A#[-5s6-6-5-8--8---8---8-8-8-8----]
 F#[-5s5-5--------0----------------]

Post-Chorus
Gtr. 1
 
 D#[----0-------0-------0--------0--------]
 A#[--1---1---3---1---1---1----1---1------]
 F#[-2-2---2-0-0---0--------0--------0----]x2
 C#[-----------------3-3------3-3---------]

Gtr. 2
 
 A#[-10----------------10---------------------]
 F#[--9-----------------9----------9----------]
 C#[-10---7h9-10--9-7--10---7h9-10----9-5--7--]

Verse 2
Gtr. 2
Am G F x5
Gtr. 1
 
 D#[----0-------0-------0--------0--------]
 A#[--1---1---3---1---1---1----1---1------]
 F#[-2-2---2-0-0---0--------0--------0----]x5
 C#[-----------------3-3------3-3---------]

Pre-Chorus
Chorus
Post-Chorus 2
Gtr. 2
F C G x2
Gtr. 1
 
 D#[-----------5------7-8-7-5-7----]
 A#[-5s6-6-5-8--8---8---8-8-8-8----]x2
 F#[-5s5-5--------0----------------]

Bridge
Gtr. 2
Em C G D/F# x3
[Am7] [F]  
Gtr. 1
 
 D#[-----2---0-----0-0-0/0-0--]
 A#[-5----3---3----5-7-8/7-3--]x3
 F#[-------4---4--------------]
 D#[----0--------0------0----]
 A#[--1---1----1---1--1---1--]
 F#[-2-2---2-----------------]
 C#[----------3-3----3-3-----]

Chorus 2
No guitar
Then
Gtr. 2
[F] [C] [G] [Am]  
[F] [C] [G]  
Ending
Gtr. 2
F C G x4
Gtr. 1
Gtr. 1
 
 D#[-----------5------7-8-7-5-7----]
 A#[-5s6-6-5-8--8---8---8-8-8-8----]x3
 F#[-5s5-5--------0----------------]
 D#[-----------5-----]
 A#[-5s6-6-5-8--8----]
 F#[-5s5-5-----------]

Tabbed by Adam K

Important: The song above is NOT stored on the Chordie server. The original song is hosted at www.christianguitar.org. Chordie works as a search engine and provides on-the-fly formatting. Chordie does not index songs against artists'/composers' will. To remove this song please click here.

Text color:
Chord color:
Chord grids: 
Font size:    
Page size: 

Am Am7 C F G
Rate #1 of 12 versions

Jango Player

Login - add to songbook

SHARE PAGE  




You need to log in to post comments