Guitar Tabs, Chords and Lyrics
Server problems seems to be fixed. Chordie has been experiencing problems with songs disappearing. These issues now seems to be fixed, but still verifying the fix. If you find anything strange, please email admin@chordie.com.


All Who Are Thirsty  Kutless

I added the intro, outtro and some fills.
Song: All Who Are Thirsty
Album: Strong Tower
Artist: Kutless
Words and music by: Brenton Brown & Glenn Robertson
Tabbed by: Sqweeb
Standard Tuning
E,B,G,D,A,e
Intro
 
 E---------------------------------------------------------------
 B-------------------12-------------------12---------------------
 G---12---11h12-11h12-----12--11h12-11h12-----11--11h12-11h12-11-
 D-12--12---------------12--12--------------12--12---------------
 A---------------------------------------------------------------
 E---------------------------------------------------------------
 E---------------------------------------------------------------
 B-----------10-12-------------------10------------------10------
 G---11---12----------12--11h12-11h12-----12--11h12-11h12--------
 D-12--12-----------10--10--------------10--10-------------------
 A---------------------------------------------------------------
 E---------------------------------------------------------------
 E---------------------------------------------------------------
 B-10-10-10-12-12-12----------13-12-10---------------------------
 G-------------------12-12-12----------12------------------------
 D---------------------------------------------------------------
 A---------------------------------------------------------------
 E--------------------------------------------------------------- 

Verse 1
[G]  
[Bm]  
[C2]  
[Am7] [G/B] [C2]  
[Dsus] [G]  
[Bm]  
[C2]  
[Am7] [G/B] [C] [Dsus]  
Chorus
Guitar 1
 
 E-----------------------------------------------------------
 B--8---10--8-----8---10--8-----8----10--8------8----10--8--- (Repeat through
 G----7-------7-----7------7--------------7----------------7- whole chorus)
 D---------------------------10---10---------10---10---------
 A-----------------------------------------------------------
 E----------------------------------------------------------- 

Guitar 2
[G] [G2] [Gsus] [G2] [C2]  
[G] [G2] [Gsus] [G2] [C2]  
[G] [G2] [Gsus] [G2] [C2]  
[G] [G2] [Gsus] [G2] [C2]  
Bridge
[G] [Bm]  
[C2]  
[Am7] [G/B]  
[C2] [Dsus]  
Outtro
 
 E---------------------------------------------------------------
 B--8---10--8-----8---10--8------8----10--8-------8----10--8-----
 G----7-------7-----7-------7----------------7----------------7~-
 D----------------------------10---10----------10---10-----------
 A---------------------------------------------------------------
 E--------------------------------------------------------------- 

The order of the song is
Intro
Verse
Chorus
Verse
Chorus
Bridge
Intro
Chorus
Outtro
Enjoy! =)

Important: The song above is NOT stored on the Chordie server. The original song is hosted at www.christianguitar.org. Chordie works as a search engine and provides on-the-fly formatting. Chordie does not index songs against artists'/composers' will. To remove this song please click here.

Text color:
Chord color:
Chord grids: 
Font size:    
Page size: 

Am7 Bm C C2 Dsus G G/B G2 Gsus
Rate #1 of 16 versions

Login - add to songbook

SHARE PAGE  



You need to log in to post comments