Guitar Tabs, Chords and Lyrics
Server problems seems to be fixed. Chordie has been experiencing problems with songs disappearing. These issues now seems to be fixed, but still verifying the fix. If you find anything strange, please email admin@chordie.com.


Right Here  Jeremy Camp

There are two parts to this song, the electric lead guitar and the acoustic
rhythm guitar. The intro is played by both, with each chord's first strum on
the rhythym guitar being played on the second "5h7" of each set by the lead.
The first verse is only rhythm chords. Then the pre-chorus has a little lead
riff on the B string. The way I wrote the riff it may not be exactly matched
up with the words, but it's pretty close. Listen to the song and you'll figure
it out. The chorus is played with an accompanying riff on the lead guitar, but
I'm not sure if it's exactly right. It should be close, though. Then the second
chorus has a few extra little lead riffs thrown in. At the very end of the song,
when the altered chorus plays, the electric guitar simply plays the 2-note
power chord version of the note played on rhythm on the D and G strings.I wrote
it in parentheses, (D-G), if you know what I mean.
key:
5h7 = hammer-on
7p5 = pull-off
5/7 = slide
G-10*-
D-8-*- = play chord regularly (repeatedly) until next chord/note
Intro:
[C] [Am]  
 
 e------------------------------------------
 B-----------------8------------------------
 G-7-5h7-5h7-5h7-5-----7-5h7-5h7-5h7-5h7-7--
 D------------------------------------------
 A------------------------------------------
 E------------------------------------------

[C] [Am]  
 
 e------------------------------------------
 B-----------------8------------------------
 G-7-5h7-5h7-5h7-5-----7-5h7-5h7-5h7-5-4--0-
 D------------------------------------------
 A------------------------------------------
 E------------------------------------------

*NOTE: I play the intro w/ hammer-ons, but it can also be play with slides,
in which case it would be "5/7" instead of "5h7".
Verse 1:
[C] All the world is Watch[Am]ing
[C] All the world does [Am]care
[C]Even when the [G]world weighs on my [Am]shoulders now,
These [C]feelings [G]I can [Am]bare
Pre-Chorus 1:
[F] [G]  
 
 B-5/8-7-5-3-1--1/3-3/5-5/7-7/12-12-12-14-14/16-16-16---------

Because I know that youíre here
Chorus:
[C] [G]  
 
 G-10*---------------------------------6-6-6--8--7-
 D-8-*---------------------------------8-8-8--10-9-
 A-------------------------------------------------
 E-------------------------------------------------

Everywhere I go I know your not far away
[Am]  
 
 G--------------6-6-6--8h9p8--4-
 D--------------8-8-8--10-----6-
 A------------------------------
 E------------------------------

Your right here
[F]  
 
 G--------------6-6-6--8h9p8--4----
 D--------------8-8-8--10-----6/14-
 A---------------------------------
 E---------------------------------

Your right here yeah yeah
[C] [G]  
 
 G-10*---------------------------------6-6-6--8--7-
 D-8-*---------------------------------8-8-8--10-9-
 A-------------------------------------------------
 E-------------------------------------------------

Everywhere I go I know your not far away
[Am]  
 
 G--------------6-6-6--8h9p8--4-
 D--------------8-8-8--10-----6-
 A------------------------------
 E------------------------------

Your right here
[F]  
 
 G--------------6-6-6--8h9p8--10-
 D--------------8-8-8--10-----12-
 A-------------------------------
 E-------------------------------

Your right here yeah yeah
Intro x2
VERSE 2:
[C] [G] [Am] [G]  
 
 All these thoughts Iíve wasted, G-5h7-5h7-5h7-5h7----

[C] [G] [Am] [G]  
 
 All these thoughts I fear, G-0h2-0h2-0h2-0h2----

[C]Even when these thoughts [G]have [Am]faded,[G]
[C]I still know that [G]youíre [Am]here,
Pre-Chorus 2:
[F] [G]  
 
 B-5/8-7-5-3-1--1/3-3/5-5/7-7/12-12-12-14-14/16-16-16---------

So I can rest My hope in you
Repeat Chorus
Bridge:
[Am]Many times that I have felt a[F]lone
[Am]Many times that I have felt the [F]world was crashing down upon me
[Am]You always stood here by my s[F]ide,
You were always [G]there
Solo:
 
 e------------------------------------------------------------------------------
 B--------------------------=---------------------------------------------------
 G-4*--7p6-7p6-7--4*--7p6-7p6-4-4/11--11*--11p9-11-9-----------11*----11p9-11-9-
 D-2*-------------2*------------------13*------------11-11h12--13*--------------
 A------------------------------------------------------------------------------
 E------------------------------------------------------------------------------

Repeat Chorus
Chorus (altered)
[Dm]Eve[(12-14)]rywhere I go I know your not far a[Am]way[(7-9)]
Your right [F(3-5/)]here Your right [G(5-7)]here yeah (x2)
And that's about it! Let me know how ya like it.

Important: The song above is NOT stored on the Chordie server. The original song is hosted at www.christianguitar.org. Chordie works as a search engine and provides on-the-fly formatting. Chordie does not index songs against artists'/composers' will. To remove this song please click here.

Text color:
Chord color:
Chord grids: 
Font size:    
Page size: 

Am C Dm F G
Rate #1 of 4 versions

Jango Player

Login - add to songbook

SHARE PAGE  




You need to log in to post comments